MUZBANK


МУЗЫКАЛЬНО-ИНФОРМАЦИОННЫЙ БАНК





HHerrick Dave • Beware Of Disneyland (аккорды и текст - chords & lyrics)


306

Print

Видео «Beware Of Disneyland (Herrick Dave)»

Видео клипы к песне подбираются автоматически сайтом youtube. Возможны некоторые несоответствия клипов песне.

↑ Спрятать рекламу ↑






 


Dave Herrick - Beware of Disneyland
Glen (krafftdinner@hotmail.com)

Dave Herrick $ Dave Lordson
Beware of Disneyland
Red Zebra

|--------|-----------------------|---------------------------------------|
|--------|-----------------------|-----------------7/87-----------------|
|--------|-----------------------|-----------------7/87-----------------|
|--------|--------7---6-5---4----|--------7---6----7/87-----------------|
|-12---|-0--0-0---0-----0------|-0--0-0---0---0------------------------|
|--------|-----------------------|---------------------------------------|

  .  . .   .     . tr    .  . .       .
|---------------------|------------------------||
|---------------------|------------------------||
|---------------------|---------------------||
|--------7---6-5---4--|---------5/6/7----------||
|-0--0-0---0-----0----|--0--0-0-3/4/5-0--------||
|---------------------|------------------------||

  Fig.A            tr                       

Тональность:

Это должно быть в ТОП-листе! - Топ-лист композиций



Назад
Рекомендуем посмотреть другие песни исполнителя «Herrick Dave»:

  • Комменты Fb ()
  • Комменты ВК



Добавить в Избранное Браузера
Сохранить здесь Очистить


x

0


+
-

+
-

-

Авторизация





Зарегистрироваться

M

Дата и время

  • 02:36:19
     

Социальные ссылки


Наши приложения

  • Muzbank App Play Market
  • Muzbank Amazon App