MUZBANK


МУЗЫКАЛЬНО-ИНФОРМАЦИОННЫЙ БАНК





HHIM • Buried Alive By Love (аккорды и текст - chords & lyrics)


435

Print

Видео «Buried Alive By Love (HIM)»

Видео клипы к песне подбираются автоматически сайтом youtube. Возможны некоторые несоответствия клипов песне.

↑ Спрятать рекламу ↑





 


Main Riff
E|--------------------------------------------------------|
B|--------------------------------------------------------|
G|--------------------------------------------------------|
D|--------------------------------------------------------|
A|-2-2-2-2-2-2--------------------------------------------|
E|-3-0-0-0-0-0--------------------------------------------|

Riff 1
|---------------------------------------------------------|
|---------------------------------------------------------|
|------------5-5-5-5-5------------------------------------|
|-2-2-2-2-2--5-5-5-5-5------------------------------------|
|-2-2-2-2-2 

Тональность:

Это должно быть в ТОП-листе! - Топ-лист композиций



Назад
Рекомендуем посмотреть другие песни исполнителя «HIM»:

  • Комменты Fb ()
  • Комменты ВК



Добавить в Избранное Браузера
Сохранить здесь Очистить


x

0


+
-

+
-

-

Авторизация





Зарегистрироваться

M

Дата и время

  • 09:38:05
     

Социальные ссылки


Наши приложения

  • Muzbank App Play Market
  • Muzbank Amazon App