MUZBANK



A MOST COMPLETE BANK OF MUSIC INFORMATION

МУЗЫКАЛЬНО-ИНФОРМАЦИОННЫЙ БАНК







    HHives • Hate To Say I Told You So (аккорды и текст - chords & lyrics)


    258

    Print

    Видео «Hate To Say I Told You So (Hives)»

    Видео клипы к песне подбираются автоматически сайтом youtube. Возможны некоторые несоответствия клипов песне.

    ↑ Спрятать рекламу ↑






     
    
    
    Intro
    G---------------------
    D---------------------
    A---------------------
    E-10~---------00000000
    
    
    Verse
    G-----------------------------------------------
    D-----------------------------------------------
    A--------------------8-8-8-0--------------------
    E-10-10-10-0-8-8-8-0---------6-6-6-0------------
    
    Solo
    G-----------------------------------------------
    D-----------------------------------------------
    A--------------------8-8-8-0--------------------
    E-10-10-10-0-8-8-8-0---------6-6-6-6-8-----------
    
    Daniel Anderson
    alien_workshop666@hotmail.com
     

    Тональность:

    Это должно быть в ТОП-листе! - Топ-лист композиций



    Назад
    Рекомендуем посмотреть другие песни исполнителя «Hives»:

    • Комменты Fb ()
    • Комменты ВК



    Добавить в Избранное Браузера
    Сохранить здесь Очистить


    x

    0


    +
    -

    +
    -

    -

    Авторизация





    Зарегистрироваться

    M

    Дата и время

    • 18:31:01
       

    Социальные ссылки


    Наши приложения

    • Muzbank App Play Market
    • Muzbank Amazon App