MUZBANK


МУЗЫКАЛЬНО-ИНФОРМАЦИОННЫЙ БАНК





HHoobastank • Never There (аккорды и текст - chords & lyrics)


277

Print

Видео «Never There (Hoobastank)»

Видео клипы к песне подбираются автоматически сайтом youtube. Возможны некоторые несоответствия клипов песне.

↑ Спрятать рекламу ↑






 


-------------------------------------------------------------------------------
			     NEVER THERE - Hoobastank
-------------------------------------------------------------------------------
Tabbed by: Alex R

Tuning: Dropped D

Intro/Verse: Palm mute notes on 6th string
e|----------------------------------------|----------------------------------------|
B|----------------------------------------|----------------------------------------|
G|----------------------------------------|----------------------------------------|
D|------12------10------------------------|------12------10------------------------|
A|----------------------12------10------9-|----------------------12------10------9-|
D|-0-12----0-10----0-10----0-10----0-12---|-0-12----0-10----0-10----0-10----0-12---|

e|-----------------------------------|-----------------------------------------|
B|-----------------------------------|-----------------------------------------|
G|-----------------------------------|-----------------------------------------|
D|-----------------------------------|------12------10------13------12------10-|
A|-----10-----10-----9-----9------12-|-----------------------------------------|
D|-0-8----0-8----0-7---0-7---0-10----|-0-12----0-10----0-13----0-12----0-10----|



Intro/Chorus                                                          
e|--------------------------------------|--------------------------------------|
B|--------------------------------------|--------------------------------------|
G|-----------------------------------12-|-----------------------------------12-|
D|-0-12-10-0-10-12-0-9-10-0-10-9--------|-0-12-10-0-10-12-0-9-10-0-10-9--------|
A|-0-12-10-0-10-12-0-9-10-0-10-9-----10-|-0-12-10-0-10-12-0-9-10-0-10-9-----10-|
D|-0-12-10-0-10-12-0-9-10-0-10-9-0-0----|-0-12-10-0-10-12-0-9-10-0-10-9-0-0----|

                                                                             
e|----------------------------------------|--------------------------------------|
B|----------------------------------------|--------------------------------------|
G|----------------------------------------|-----------------------------------12-|
D|-10---10---10---10---10/12-12---12---12-|-0-12-10-0-10-12-0-9-10-0-10-9--------|
A|-8----8----8----8----8-/10-10---10---10-|-0-12-10-0-10-12-0-9-10-0-10-9-----10-|
D|-8----8----8----8----8-/10-10---10---10-|-0-12-10-0-10-12-0-9-10-0-10-9-0-0----|



End of Verse
e|-----------------------------------|---------------------------------|
B|-----------------------------------|---------------------------------|
G|-----------------------------------|---------------------------------|
D|-----------------------------------|------12------10------13------12-|
A|-----10-----10-----9-----9------12-|---------------------------------|
D|-0-8----0-8----0-7---0-7---0-10----|-0-12----0-10----0-13----0-12----|

Add a digital tremolo effect.
e|----|
B|----|
G|----|
D|-10-|
A|----|
D|-10-|



End of chorus
e|----------------------------------------|-----------------------------------|
B|----------------------------------------|-----------------------------------|
G|----------------------------------------|-----------------------------------|
D|-10---10---10---10---10/12-12---12---12-|-8---8---8---8---8/10-10---10---10-|
A|-8----8----8----8----8-/10-10---10---10-|-6---6---6---6---6/8 

Тональность:

Это должно быть в ТОП-листе! - Топ-лист композиций



Назад
Рекомендуем посмотреть другие песни исполнителя «Hoobastank»:

  • Комменты Fb ()
  • Комменты ВК



Добавить в Избранное Браузера
Сохранить здесь Очистить


x

0


+
-

+
-

-

Авторизация





Зарегистрироваться

M

Дата и время

  • 07:44:17
     

Социальные ссылки


Наши приложения

  • Muzbank App Play Market
  • Muzbank Amazon App