MUZBANK


МУЗЫКАЛЬНО-ИНФОРМАЦИОННЫЙ БАНК





HHoobastank • Ready For You (аккорды и текст - chords & lyrics)


359

Print

Видео «Ready For You (Hoobastank)»

Видео клипы к песне подбираются автоматически сайтом youtube. Возможны некоторые несоответствия клипов песне.

↑ Спрятать рекламу ↑





 



Open E:
E B E G# B E


Intro: x2

e-------------------------------------------
b-------------------------------------------
g-------------------------------------------
e-11---11-11-11---11-12---12-12-12-12-12-12-
b--0----0--0--0----0--0----0--0--0--0--0--0-
e-------------------------------------------

e-------------------------------------------
b-------------------------------------------
g-------------------------------------------
e---14-14-14-14-14-14-12------12--12-12-12--
b-0--0--0--0--0--0--0--0----0--0---0--0--0--
e-------------------------------------------

Verses:

pm
e-----------------------------------------------------------------
b-----------------------------------------------------------------
g---------------------------------------------5-----5-----5---5---
e-6-----------6-----6-----6-6-6-6-5-----------5-----5-----5---5---
b-0---0-0-0-0-0-0-0-0-0-0-0-0-0-0-0---0-0-0-0-0-0-0-0-0-0-0-0-0-0-
e-----------------------------------------------------------------

e-----------------------------------------------------------------
b-----------------------------------------------------------------
g-------------6-----6-----6-6-6-6-------------3----121212121212---
e-3-----------3-----3-----3-3-3-3-0-----------0-----x-x-x-x-x-x---
b-3-----------3-----3-----3-3-3-3-0-----------0-----9-9-9-9-9-9---
e-3---3-3-3-3---3-3---3-3-3-3-3-3-0---0-0-0-0---0-0---------------

e-----------------------------------------------------------------
b-----------------------------------------------------------------
g---------------------------------------------5-----5-----5---5---
e-6-----------6-----6-----6-6-6-6-5-----------5-----5-----5---5---
b-0---0-0-0-0-0-0-0-0-0-0-0-0-0-0-0---0-0-0-0-0-0-0---0-0-0-0-0-0-
e-----------------------------------------------------------------

e-----------------------------------------------------------------
b-5-----------5-----5-----5---------------------------------------
g-3-----------3-----3-----3---------------------------------------
e-0-----------0-----0-----0---------------------------------------
b-0-----------0-----0-----0---0---0-------------------------------
e-0---0-0-0-0---0-0---0-0---0-0-2-3~~~~~~~~~~~~~~~~~~~~~~~-/12---

Chorus:

gtr. 1

e-0---0-0---0-0-0-0-0-0-0-0-0-0-0---------------------------------
b-0---0-0---0-0-0-0-0-0-0-0-0-0-0-5---5-5---5-5-5---5-5-5-5-5-5-5-
g-7---7-7---7-7-7-7-7-7-7-7-7-7-7-8---8-8---8-8-8---8-8-8-8-8-8-8-
e-7---7-7---7-7-7-7-7-7-7-7-7-7-7-7---7-7---7-7-7---7-7-7-7-7-7-7-
b-0---0-0---0-0-0-0-0-0-0-0-0-0-0-5---5-5---5-5-5---5-5-5-5-5-5-5-
e---------------------------------5---5-5---5-5-5---5-5-5-5-5-5-5-

gtr. 2

e-----------------------------------------------------------------
b-----------------------------------------------------------------
g-----------------------------------------------------------------
e-------2-----0-------------------------2-----------0-------------
b-0-----------------4-4---------------------------------4-4-------
e---------------------------------5-------------------------------

gtr. 1

e-----------------------------------------------------------------
b-5---5-5---5-5-5-5-5-5-5-5-5-5---3---3-3----5----5-5-5-5-5-5-5-5-
g-3---3-3---3-3-3-3-3-3-3-3-3-3---6---6-6----3----8-8-8-8-8-8-8-8-
e-0---0-0---0-0-0-0-0-0-0-0-0-0-2-3---3-3----0-5--7-7-7-7-7-7-7-7-
b-0---0-0---0-0-0-0-0-0-0-0-0-0-2-3---3-3----0-5--5-5-5-5-5-5-5-5-
e-0---0-0---0-0-0-0-0-0-0-0-0-0-2-3---3-3----0-5--5-5-5-5-5-5-5-5-

gtr. 2

e-----------------------------------------------------------------
b-----------------------------------------------------------------
g-----------------------------------------------------------------
e-------2-----0-------------------------------------0-------------
b-------------------4-4-----------3-----2------3------------------
e-0---------------------------------------------------------------

after 1st chorus:

e-----------------------------------------------------------------
b-------------------------2-2-2-2---------------------------------
g-2-----------2-----2-----2-2-2-2-7-----------------8-8-8-8-7-7---
e-2-----------2-----2-----2-2-2-2-7-----------7-----7-7-7-7-7-7---
b-0---0-0-0-0-0-0-0-0-0-0-0-0-0---0---0-0-0-0---0-0-0-0-0-0-0-0---
e-----------------------------------------------------------------

after 2nd chorus:

e-------------------------------------------------
b---------------------------5---------------------
g-----------------6-6-6-6-6-3---------------------
e-5-5-5-5-5-5-----3-3-3-3-3-0-5---5-5-5-5-5-5-5-7-
b-5-5-5-5-5-5-0-2-3-3-3-3-3-0-5---5-5-5-5-5-5-5-7-
e-5-5-5-5-5-5-----3-3-3-3-3-0-5---5-5-5-5-5-5-5-7-

Interlude:

e-----------------------------------------------------------------
b-----------------------------------------------------------------
g-----------------------------------------------------------------
e11---111111---1112-----1212121212--14141414141412-----12--121212-
b-0----0-0-0----0-0----0-0-0-0-0-0-0-0-0-0-0-0-0-0----0-0-0-0-0-0-
e-----------------------------------------------------------------

e-----------------------------------------------------------------
b-----------------------------------------------------------------
g-----------------------------------------------------------------
e1111111111111112----1212121212141414141414141412--12121212121212
b-0-0-0-0-0-0-0-0---0-0-0-0-0-0-0-0-0-0-0-0-0-0-0---0-0-0-0-0-0-0-
e-----------------------------------------------------------------

after 3rd chorus:

e-----------------------------------------------------------------
b-----------------------------------------------------------------
g10---10---10----10---10101010------------------------------------
e-9----9----9-----9----9-9-9-9--5----5-5----5-5---5---5----5--5---
b-7----7----7-----7----7-7-7-7--5----5-5----5-5---5---5----5--5---
e-7----7----7-----7----7-7-7-7--5----5-5----5-5---5---5----5--5---

e-----------------------------------------------------------------
b-5-5-5-5---5--5---5---5-5-5-5-5-3---3-3---3-3--5-5-5-5-5-5-5-5-5-
g-3-3-3-3---3--3---3---3-3-3-3-3-6---6-6---6-6--8-8-8-8-8-8-8-8-8-
e-0-0-0-0---0--0---0---0-0-0-0-0-5---5-5---5-5--7-7-7-7-7-7-7-7-7-
b-0-0-0-0---0--0---0---0-0-0-0-0-3---3-3---3-3--5-5-5-5-5-5-5-5-5-
e-0-0-0-0---0--0---0---0-0-0-0-0-3---3-3---3-3--5-5-5-5-5-5-5-5-5-


Тональность:

Это должно быть в ТОП-листе! - Топ-лист композиций



Назад
Рекомендуем посмотреть другие песни исполнителя «Hoobastank»:

  • Комменты Fb ()
  • Комменты ВК



Добавить в Избранное Браузера
Сохранить здесь Очистить


x

0


+
-

+
-

-

Авторизация





Зарегистрироваться

M

Дата и время

  • 18:24:52
     

Социальные ссылки


Наши приложения

  • Muzbank App Play Market
  • Muzbank Amazon App