MUZBANK


МУЗЫКАЛЬНО-ИНФОРМАЦИОННЫЙ БАНК





HHoobastank • Running Away (аккорды и текст - chords & lyrics)


537

Print

Видео «Running Away (Hoobastank)»

Видео клипы к песне подбираются автоматически сайтом youtube. Возможны некоторые несоответствия клипов песне.

↑ Спрятать рекламу ↑






 


!!! Canada !!!Artist: Hoobastank
Song: Running Away
Tabber: Headless_Duck77
Tuning (low to high): DADGBe

DONT LOOK AT MY EARLIER SUBMISSION I FORGOT TO ADD A PART OF THE INTRO HAHA SO THIS IS THE RIGHT WAY TO PLAY IT =S

Intro/Verse:
e:------------------------------------------------------------------
B:------------------------------------------------------------------
G:-----------------------------------------------------------5-5-5-4
D:-10-10-10---7-9-9-9--10-10-10--7-9-9-9-5-5-7-9-9-9-3-3-3-5-x-x-x-x
A:-7-----7----7-7---7--7-----7---7-7---7-5-5-5-5-5-5-3---3-3-3-3-3-3
D:-7-----7----7-7---7--7-----7---7-7---7-5-5-5-5-5-5-3---3-3-3-3-3-3

Chorus(play notes as many times as needed):
e:----------------------------
B:----------------------------
G:----------------------------
D:-7---9---10---0---3---10---5
A:-7---9---10---0---3---10---5
D:-7---9---10---0---3---10---5

2nd half of chorus:
e:----------------------------
B:----------------------------
G:----------------------------
D:-7---2---10---0---3---10---9
A:-7---2---10---0---3---10---9
D:-7---2---10---0---3---10---9

1st Interlude:
e:-------0-----------0--------
B:-----0---0-------0---0------
G:---5-------5---5-------5----
D:-7-----------7--------------
A:----------------------------
D:----------------------------

Verse: 
1st Guitar:
e-------0------------0----------0------------0-----
B---------0------------0----------0--------0---0---
G---5-------5----5----------7-------7----2-------2-
D-7---7--------7---7------5---5--------3-----------
A--------------------------------------------------
D--------------------------------------------------

2nd Guitar:
e------------------------------------------------
B------------------------------------------------
G---------------------7---5--7--9-----10-7----10-
D-7--------5----3-----x---x--x--x------x-x-----x-
A-x--------x----x-----5---3--5--7------8-5-----8-
D-7--------5----3--------------------------------

Chorus(play notes as many times as needed):
e:----------------------------
B:----------------------------
G:----------------------------
D:-7---9---10---0---3---10---5
A:-7---9---10---0---3---10---5
D:-7---9---10---0---3---10---5

2nd half of chorus:
e:----------------------------
B:----------------------------
G:----------------------------
D:-7---2---10---0---3---10---9
A:-7---2---10---0---3---10---9
D:-7---2---10---0---3---10---9

2nd Interlude:
e-------0-----------0-------
B-----0---0-------0---0-----
G---5-------5---5-------5---x2
D-7-----------7-----------7-   
A---------------------------    
D---------------------------     
                                  |x2
e-------0-----------0-------     /
B-----0---0-------0---0-----    /
G---4-------4---4-------4---x2 /
D-5-----------5-----------5-
A---------------------------
D---------------------------

Bridge(play notes as many times needed the note changes are here):
e----------------------
B----------------------
G-------------7--------
D-7---2---7---7---3---5
A-7---2---7---5---3---5
D-7---2---7-------3---5

Chorus(play notes as many times as needed):
e:----------------------------
B:----------------------------
G:----------------------------
D:-7---9---10---0---3---10---5 
A:-7---9---10---0---3---10---5  
D:-7---9---10---0---3---10---5   
                                 |x2
2nd half of chorus:              /
e:----------------------------  /
B:---------------------------- /
G:----------------------------/
D:-7---2---10---0---3---10---9
A:-7---2---10---0---3---10---9
D:-7---2---10---0---3---10---9
 

Тональность:

Это должно быть в ТОП-листе! - Топ-лист композиций



Назад
Рекомендуем посмотреть другие песни исполнителя «Hoobastank»:

  • Комменты Fb ()
  • Комменты ВК



Добавить в Избранное Браузера
Сохранить здесь Очистить


x

0


+
-

+
-

-

Авторизация





Зарегистрироваться

M

Дата и время

  • 14:30:02
     

Социальные ссылки


Наши приложения

  • Muzbank App Play Market
  • Muzbank Amazon App