MUZBANK


МУЗЫКАЛЬНО-ИНФОРМАЦИОННЫЙ БАНК





HHum • Stars (аккорды и текст - chords & lyrics)


366

Print

Видео «Stars (Hum)»

Видео клипы к песне подбираются автоматически сайтом youtube. Возможны некоторые несоответствия клипов песне.

↑ Спрятать рекламу ↑





 


-----------------------------------------------------------------------
STARS by: HUM
-----------------------------------------------------------------------

Tabbed by: Scott Sommers (Cyclops)
Email: scott_sommers_Cyclops@hotmail.com

Tuning: Drop D

NOTES: An oldie, but with a lot of fun riffs. In addition, if played right,
with a full band, it sounds incredible. (It is the only good song they put out
in my opinion.)

STUMMING NOT INCLUDED, LISTEN TO THE SONG

INTRODUCTION

e|---7---|--7--|--2-|-------------------------------------------------|
B|---7---|--7--|--3-|-------------------------------------------------|
G|---7---|--7--|--2-|----REPEAT-TWICE---------------------------------|
D|---7---|--7--|--0-|-------------------------------------------------|
A|---0h5-|--4--|----|-------------------------------------------------|
E|---0h5-|--4--|----|-------------------------------------------------|

FILL		MAIN RIFF/VERSE

e|-----|-------|------------------------------------------------------|
B|-----|-------|------------------------------------------------------|
G|--11-|---9---|-11-S--23---------------------------------------------|
D|--x--|-------|-x--S--X----------------------------------------------|
A|--9--|-7---7-|-9--S--21---------------------------------------------|
E|-----|-------|------------------------------------------------------|

CHORUS

e|-7-|-7-|-PALM---|-7-|-7-|----------|--------------------------------|
B|-7-|-7-|-MUTE---|-7-|-7-|----------|--------------------------------|
G|-7-|-7-|--------|-7-|-7-|-11-S--23-|-REPEAT 3X, THEN 4TH TIME 24----|
D|-7-|-7-|-0-2-0--|-7-|-7-|-X--------|--------------------------------|
A|-5-|-4-|-0-2-0--|-5-|-4-|-9--------|--------------------------------|
E|-5-|-4-+-0-2-0--|-5-|-4-|----------|--------------------------------|

 

Тональность:

Это должно быть в ТОП-листе! - Топ-лист композиций



Назад

  • Комменты Fb ()
  • Комменты ВК



Добавить в Избранное Браузера
Сохранить здесь Очистить


x

0


+
-

+
-

-

Авторизация





Зарегистрироваться

M

Дата и время

  • 06:29:21
     

Социальные ссылки


Наши приложения

  • Muzbank App Play Market
  • Muzbank Amazon App