MUZBANK



A MOST COMPLETE BANK OF MUSIC INFORMATION

МУЗЫКАЛЬНО-ИНФОРМАЦИОННЫЙ БАНК





II Mother Earth • Another Sunday (аккорды и текст - chords & lyrics)


319

Print

Видео «Another Sunday (I Mother Earth)»

Видео клипы к песне подбираются автоматически сайтом youtube. Возможны некоторые несоответствия клипов песне.

↑ Спрятать рекламу ↑





 


Another Sunday - I mother earth
standard tuning
() means palm muting,
/ means slide up
 means slide down.
x means scratch
b means bend
r means release

Intro (clean dist.)
e---------------------------------------------------------
b---------------------------------------------------------
g--4----------------------3-----3-----3/4--4---3-----3----
d--x----------------------x-----x-----x/x--x---x-----x-x--
a--2-------------(2)-(2)-1-(1)-1-(1)-1/2--2---1-(1)-1-x--
E--3-------------(3)-(3)-2-(2)-2-(2)-2/3--3---2-(2)-2-x--

Verse I
e---------------------------------------------------------------------------
b---------------------------------------------------------------------------
g--4-------------------------3-----3-----3/4--4----------3-----3---------3/-
d--x-------------------------x-----x-----x/x--x----------x-----x---------x/-
a--2-(2)-(2)-(2)-(2)-(2)(1)-1-(1)-1-(1)-1/2--2-(2)-(2)-1-(1)-1-(1)-(2)-1/-
E--3-(3)-(3)-(3)-(3)-(3)(2)-2-(2)-2-(2)-2/3--3-(3)-(3)-2-(2)-2-(2)-(2)-2/-

e---------------------------------------------------------------------------
b---------------------------------------------------------------------------
g--4-------------------------3-----3-----3/4--4----------3-3-3--7-7-8-9----
d--x-------------------------x-----x-----x/x--x----------x-x-x--x-x-x-x-----
a--2-(2)-(2)-(2)-(2)-(2)(1)-1-(1)-1-(1)-1/2--2-(2)-(2)-1-1-1--5-5-6-7----
E--3-(3)-(3)-(3)-(3)-(3)(2)-2-(2)-2-(2)-2/3--3-(3)-(3)-2-2-2--------------

                                       x4
e||------------------------------------||
b||------------------------------------||
g||o-4---------43--3-3--7-7-7---8-9-o||
d||o-x---------xx--x-x--x-x-x---x-x--o||
a||--2-(3)-(3)-31--1-1--5-5-5---6-7--||
E||--3-(2)-(2)-22--2-2----------------||
 

Тональность:

Это должно быть в ТОП-листе! - Топ-лист композиций



Назад
Рекомендуем посмотреть другие песни исполнителя «I Mother Earth»:

  • Комменты Fb ()
  • Комменты ВК



Добавить в Избранное Браузера
Сохранить здесь Очистить


x

0


+
-

+
-

-

Авторизация





Зарегистрироваться

M

Дата и время

  • 21:57:43
     

Социальные ссылки


Наши приложения

  • Muzbank App Play Market
  • Muzbank Amazon App