MUZBANK


МУЗЫКАЛЬНО-ИНФОРМАЦИОННЫЙ БАНК





IIced Earth • I Died For You (аккорды и текст - chords & lyrics)


247

Print

Видео «I Died For You (Iced Earth)»

Видео клипы к песне подбираются автоматически сайтом youtube. Возможны некоторые несоответствия клипов песне.

↑ Спрятать рекламу ↑






 (6) = Eb
 (5) = Ab
 (4) = Db
 (3) = Gb

*Help*
*In this tab I have used this note timings.*
 
| --------     | 1/2  | Half note
| ----         | 1/4  | Quarter note
| --           | 1/8  | Eight note
| -            | 1/16 | Sixteenth note




INTRO:
Riff 1 x 2 times
->(0:00-0:17)
Gb)|----------------------|----------------------|----------------------|----------------------|
Db)|----------------------|----------------------|----------------------|----------------------|
Ab)|----------------------|----------------------|--5-------------------|-5--5-`-5-------------|
Eb)|--0-------------------|-0--0-----------------|----------------------|----------------------|



VERSE 1:
Riff 1 x 4 times
->(0:17-0:51)
Gb)|----------------------|----------------------|----------------------|----------------------|
Db)|----------------------|----------------------|----------------------|----------------------|
Ab)|----------------------|----------------------|--5-------------------|-5--5-`-5-------------|
Eb)|--0-------------------|-0--0-----------------|----------------------|----------------------|




I can't believe this now
This isn't what I planned
I lived and died now
I just can't understand
With all the love I feel
I could never leave her
No matter what the cost
My souls the price to see her

(Chorus)
Oh how I love you
The pain won't go away
Oh when I need you
You're always so far away
I cry for you
Leaving myself to blame
I died for you
I gave up everything

The pain was just to muchWhen I finally saw her
She's happy and in love
In love with my best friend
What makes it hurt so bad
Is that I love them both
And they will never know
For love I sold my soul 

Тональность:

Это должно быть в ТОП-листе! - Топ-лист композиций



Назад
Рекомендуем посмотреть другие песни исполнителя «Iced Earth»:

  • Комменты Fb ()
  • Комменты ВК



Добавить в Избранное Браузера
Сохранить здесь Очистить


x

0


+
-

+
-

-

Авторизация





Зарегистрироваться

M

Дата и время

  • 13:59:35
     

Социальные ссылки


Наши приложения

  • Muzbank App Play Market
  • Muzbank Amazon App