MUZBANK


МУЗЫКАЛЬНО-ИНФОРМАЦИОННЫЙ БАНК





IIdlewild • Living In A Hiding Place (аккорды и текст - chords & lyrics)


331

Print

Видео «Living In A Hiding Place (Idlewild)»

Видео клипы к песне подбираются автоматически сайтом youtube. Возможны некоторые несоответствия клипов песне.

↑ Спрятать рекламу ↑





 


Idlewild - Living In A Hiding Place
Tabbed by: Keith clark
Mrnicesg@blueyonder.co.uk

Tuned down half a step

Intro:
       G       C          D
eb------------------------------------------------------
Bb------------------------------------------------------
Gb---------0-------0----------0-----0---0---------------
Db-------0-------0----------7-----7---------------------
Ab-------------3------2---5-----5-----5-----------------
Eb-----3------------------------------------------------

Verse 1:
      G       C          D
eb------------------------------------------------------
Bb------------------------------------------------------
Gb---------0-------0----------0-----0---0---------------
Db-------0-------0----------7-----7---------------------
Ab-------------3------2---5-----5-----5-----------------
Eb-----3------------------------------------------------

There are times that I should try, to be so much more alive
But if time was right then I would be with you again
Or do you worry that I try, to avoid the point and then deny
The time I spent deciding it was you again 


Chorus:
eb------------------------------------------------------
Bb------------------------------------------------------
Gb----------0--------0---0------0------0---------------
Db--------5--------7----------9------0------------------
Ab------3--------5-----5----7--------------------------
Eb---------------------------------3--------------------

It 

Тональность:

Это должно быть в ТОП-листе! - Топ-лист композиций



Назад
Рекомендуем посмотреть другие песни исполнителя «Idlewild»:

  • Комменты Fb ()
  • Комменты ВК



Добавить в Избранное Браузера
Сохранить здесь Очистить


x

0


+
-

+
-

-

Авторизация





Зарегистрироваться

M

Дата и время

  • 22:40:19
     

Социальные ссылки


Наши приложения

  • Muzbank App Play Market
  • Muzbank Amazon App