MUZBANK


МУЗЫКАЛЬНО-ИНФОРМАЦИОННЫЙ БАНК





IIn Flames • Jotun (аккорды и текст - chords & lyrics)


227

Print

Видео «Jotun (In Flames)»

Видео клипы к песне подбираются автоматически сайтом youtube. Возможны некоторые несоответствия клипов песне.

↑ Спрятать рекламу ↑






 Bass
..  - palm mute          /  - slide up to
   - slide down to      ~  - vibrato
 h  - hammer on          b  - bend
 p  - pull off            Suffixes for bend
                          ph - pinch harmonic
                           f - full bend    h - half bend
*  - see comment           r - release      t - tap bend
X  - percussion mute       ~ - vibrato bend
@  - slight palm mute     () - ghost note, sustained note

Tune Gtr to C

Jotun

|------------------------------------------------------------------------------|
|------------------------------------------------------------------------------|
|-7--------3--------0--------5--------7--------3--------5----5-----------------|
|------------------------------------------------------------------------------|

|------------------------------------------------------------------------------|
|------------------------------------------------------------------------------|
|-7--------3--------0--------5--------7--------3--------5----5-----------------|
|------------------------------------------------------------------------------|

|------------------------------------------------------------------------------|
|------------------------------------------------------------------------------|
|---------------0---2-----3---------3------5-----------------------------------|
|-0------3----------------------------------------0----------------------------|

|------------------------------------------------------------------------------|
|------------------------------------------------------------------------------|
|-----------------2-2-2-2-2-2-2-2---------------0----3------2------------------|
|-0-0-0-0-0-0-0-0-----------------0------3-------------------------------------|

|------------------------------------------------------------------------------|
|------------------------------------------------------------------------------|
|-----------------2-2-2-2-2-2-2-2---------------0----3------2------------------|
|-0-0-0-0-0-0-0-0-----------------0------3-------------------------------------|

|------------------------------------------------------------------------------|
|------------------------------------------------------------------------------|
|-------------------------------------------------0----3------2----------------|
|-00000------------00000----000000000------3-----------------------------------|

|------------------------------------------------------------------------------|
|------------------------------------------------------------------------------|
|-------------------------------------------------0----3------2----------------|
|-00000------------00000----000000000------3-----------------------------------|

|------------------------------------------------------------------------------|
|------------------------------------------------------------------------------|
|-----------------2-2-2-2-2-2-2-2---------------0----3------2------------------|
|-0-0-0-0-0-0-0-0-----------------0------3-------------------------------------|

|------------------------------------------------------------------------------|
|------------------------------------------------------------------------------|
|-----------------2-2-2-2-2-2-2-2---------------0----3------2------------------|
|-0-0-0-0-0-0-0-0-----------------0------3-------------------------------------|

|------------------------------------------------------------------------------|
|------------------------------------------------------------------------------|
|-7------2----------5------0-----------------5----------3------7---------------|
|-------------------------------------3----------------------------------------|

|------------------------------------------------------------------------------|
|------------------------------------------------------------------------------|
|-7------2----------5------0-----------------5----------3------7---------------|
|-------------------------------------3----------------------------------------|

|------------------------------------------------------------------------------|
|------------------------------------------------------------------------------|
|-7----7------5----7----7-7-7-7-7-7-7-7-7-7-7-7-5-7-7-7-7-7-7-3----5-----------|
|------------------------------------------------------------------------------|

|------------------------------------------------------------------------------|
|------------------------------------------------------------------------------|
|-7-7-7-7-7-5-7-7-7-7-7-7-7-7-7-7-7-7-7-7-7-5-7-7-7-7-7-7-3----5---------------|
|------------------------------------------------------------------------------|

|------------------------------------------------------------------------------|
|------------------------------------------------------------------------------|
|------------------------------------------------------------------------------|
|-3-3-3-3-3-3-3-3-3-3-3-3-3-3-3-3-3-3-3-3-3-3-3-3-3-3-3-3-3-3-3-3--------------|

|------------------------------------------------------------------------------|
|------------------------------------------------------------------------------|
|------------------------------------------------------------------------------|
|-3-3-3-3-3-3-3-3-3-3-3-3-3-3-3-3-3-3-3-3-3-3-3-3-3-3-3-3-3-3-3-3--------------|

|------------------------------------------------------------------------------|
|------------------------------------------------------------------------------|
|-7-7-7-7-7-5-7-7-7-7-7-7-7-7-7-7-7-7-7-7-7-5-7-7-7-7-7-7-7-7-7-7--------------|
|------------------------------------------------------------------------------|

|------------------------------------------------------------------------------|
|------------------------------------------------------------------------------|
|-7-7-7-7-7-5-7-7-7-7-7-7-7-7-7-7-7-7-7-7-7-5-7-7-7-7-7-7-7-7-7-7--------------|
|------------------------------------------------------------------------------|

|------------------------------------------------------------------------------|
|------------------------------------------------------------------------------|
|-----------------2-2-2-2-2-2-2-2---------------0----3------2------------------|
|-0-0-0-0-0-0-0-0-----------------0------3-------------------------------------|

|------------------------------------------------------------------------------|
|------------------------------------------------------------------------------|
|-----------------2-2-2-2-2-2-2-2---------------0----3------2------------------|
|-0-0-0-0-0-0-0-0-----------------0------3-------------------------------------|

|------------------------------------------------------------------------------|
|------------------------------------------------------------------------------|
|-------------------------------------------------0----3------2----------------|
|-00000------------00000----000000000------3-----------------------------------|

|------------------------------------------------------------------------------|
|------------------------------------------------------------------------------|
|-------------------------------------------------0----3------2----------------|
|-00000------------00000----000000000------3-----------------------------------|


|------------------------------------------------------------------------------|
|------------------------------------------------------------------------------|
|-----------------2-2-2-2-2-2-2-2---------------0----3------2------------------|
|-0-0-0-0-0-0-0-0-----------------0------3-------------------------------------|

|------------------------------------------------------------------------------|
|------------------------------------------------------------------------------|
|-----------------2-2-2-2-2-2-2-2---------------0----3------2------------------|
|-0-0-0-0-0-0-0-0-----------------0------3-------------------------------------|

|------------------------------------------------------------------------------|
|------------------------------------------------------------------------------|
|-7------2----------5------0-----------------5----------3------7---------------|
|-------------------------------------3----------------------------------------|

|------------------------------------------------------------------------------|
|------------------------------------------------------------------------------|
|-7------2----------5------0-----------------5----------3------7---------------|
|-------------------------------------3----------------------------------------|

|------------------------------------------------------------------------------|
|------------------------------------------------------------------------------|
|-7------2----------5------0-----------------5----------3------7---------------|
|-------------------------------------3----------------------------------------|

|------------------------------------------------------------------------------|
|------------------------------------------------------------------------------|
|-7------2----------5------0-----------------5----------3------7---------------|
|-------------------------------------3----------------------------------------|

|------------------------------------------------------------------------------|
|------------------------------------------------------------------------------|
|---------------------------------2-222-222-222-22-----------------------------|
|-0-000-000-000-003-333-333-333-33----------------5-5-5-5-55555555-------------|

|------------------------------------------------------------------------------|
|------------------------------------------------------------------------------|
|---------------------------------2-222-222-222-223-3-3-3-3-3-3-3--------------|
|-0-000-000-000-003-333-333-333-33---------------------------------------------|

|------------------------------------------------------------------------------|
|------------------------------------------------------------------------------|
|-7------2----------5------0-----------------5----------3------7---------------|
|-------------------------------------3----------------------------------------|

|------------------------------------------------------------------------------|
|------------------------------------------------------------------------------|
|-7------2----------5------0-----------------5----------3------7---------------|
|-------------------------------------3----------------------------------------|

|------------------------------------------------------------------------------|
|------------------------------------------------------------------------------|
|-7--------3--------0--------5--------7--------3--------5----5-----------------|
|------------------------------------------------------------------------------|

|------------------------------------------------------------------------------|
|------------------------------------------------------------------------------|
|-7--------3--------0--------5--------7--------3--------5----5-----------------|
|------------------------------------------------------------------------------|


|------------------------------------------------------------------------------|
|------------------------------------------------------------------------------|
|---------------0----2------3----------3------5--------------------------------|
|-0------3-----------------------------------------0---------------------------| 

Тональность:

Это должно быть в ТОП-листе! - Топ-лист композиций



Назад
Рекомендуем посмотреть другие песни исполнителя «In Flames»:

  • Комменты Fb ()
  • Комменты ВК



Добавить в Избранное Браузера
Сохранить здесь Очистить


x

0


+
-

+
-

-

Авторизация





Зарегистрироваться

M

Дата и время

  • 21:10:31
     

Социальные ссылки


Наши приложения

  • Muzbank App Play Market
  • Muzbank Amazon App