MUZBANK



A MOST COMPLETE BANK OF MUSIC INFORMATION

МУЗЫКАЛЬНО-ИНФОРМАЦИОННЫЙ БАНК







    IIncubus • Clean (аккорды и текст - chords & lyrics)


    306

    Print

    Видео «Clean (Incubus)»

    Видео клипы к песне подбираются автоматически сайтом youtube. Возможны некоторые несоответствия клипов песне.

    ↑ Спрятать рекламу ↑





     
    
    
    Incubus
    Clean 
    
    Standard Tuning
    Effects: Distortion, Tremolo, Wah
    
    Notes in [brakets] are harmonics
    
    Intro:
    (start with drums)
    now the intro gets louder and louder each time it is played till its 
    full on distortion.
    (light distortion)
    e:-----------------
    B:-----------------
    G:-----------------
    D:----------------- x4
    A:--0h2-2-0-0h2-2--
    E:-----------------
    
    then
    (with more distortion)
    e:----------------------[7][7][7]--
    B:---------------------------------
    G:---------------------------------
    D:--2/4-4-2-2/4-4--xxxx------------ x8
    A:--0/2-2-0-0/2-2--xxxx------------
    E:-----------------xxxx------------
    
    then
    (with even more distortion (and mabye a little chorus), and let notes 
    ring)
    e:-----------------00000000000000000--
    B:-----------------5((grad.bend((())--
    G:------------------------------------
    D:--2/4-4-2-2/4-4--------------------- x4
    A:--0/2-2-0-0/2-2---------------------
    E:------------------------------------
    
    then
    (with just distortion)
    e:-----------
    B:-----------
    G:-----------
    D:--2/4-4-2--
    A:--0/2-2-0--
    E:-----------
    
    thats the intro!
    
    Verse:
    (with tremolo)
    e:-----------
    B:--2~-2~----
    G:--2~-------
    D:--4~--4~---
    A:--5~---5~--
    E:-----------
    
    then
    e:--7~~-7~-----
    B:--10~--10~---
    G:--8~~----8~--
    D:--9~~--------
    A:-------------
    E:-------------
    
    Pre-Chorus:
    (letting the wah out slowly and then putting it back on quickly at the 
    end)
        >>>>>>>>>>>>>>>>>>>>>>>>>>>>>
     

    Тональность:

    Это должно быть в ТОП-листе! - Топ-лист композиций



    Назад
    Рекомендуем посмотреть другие песни исполнителя «Incubus»:

    • Комменты Fb ()
    • Комменты ВК



    Добавить в Избранное Браузера
    Сохранить здесь Очистить


    x

    0


    +
    -

    +
    -

    -

    Авторизация





    Зарегистрироваться

    M

    Дата и время

    • 11:10:17
       

    Социальные ссылки


    Наши приложения

    • Muzbank App Play Market
    • Muzbank Amazon App