MUZBANK


МУЗЫКАЛЬНО-ИНФОРМАЦИОННЫЙ БАНК





IInterpol • Obstacle 1 (аккорды и текст - chords & lyrics)


644

Print

Видео «Obstacle 1 (Interpol)»

Видео клипы к песне подбираются автоматически сайтом youtube. Возможны некоторые несоответствия клипов песне.

↑ Спрятать рекламу ↑





 


www.interpol.int/
-------------------------------------------------------------------------------
			     obstacle 1 - Interpol
-------------------------------------------------------------------------------

Tabbed By : phfated		
e-mail: mer

Tuning: standard EADG
not the whole song, but more than the intro play with pick


its pretty close, maybe more repititions
G|17-17-17-19-19-19-17-17---------------------------------------------|
D|--------------------------------------------------------------------|
A|--------------------------------------------------------------------| 
E|--------------------------------------------------------------------|
(x4)
G|17-19-17-17-19-17-17-19-17-19-17-19-17------------------------------|
D|--------------------------------------------------------------------|
A|--------------------------------------------------------------------|
E|--------------------------------------------------------------------|

G|--------------------------10-10-------------------------------------|
D|--------10-------------10-------------------------------------------|
A|----8-8------------8-8----------------------------------------------|
E|8-8--------5555 

Тональность:

Это должно быть в ТОП-листе! - Топ-лист композиций



Назад
Рекомендуем посмотреть другие песни исполнителя «Interpol»:

  • Комменты Fb ()
  • Комменты ВК



Добавить в Избранное Браузера
Сохранить здесь Очистить


x

0


+
-

+
-

-

Авторизация





Зарегистрироваться

M

Дата и время

  • 11:30:23
     

Социальные ссылки


Наши приложения

  • Muzbank App Play Market
  • Muzbank Amazon App