MUZBANK



A MOST COMPLETE BANK OF MUSIC INFORMATION

МУЗЫКАЛЬНО-ИНФОРМАЦИОННЫЙ БАНК





IIron Maiden • Fear Of The Dark Live (аккорды и текст - chords & lyrics)


558

Print

Видео «Fear Of The Dark Live (Iron Maiden)»

Видео клипы к песне подбираются автоматически сайтом youtube. Возможны некоторые несоответствия клипов песне.

↑ Спрятать рекламу ↑





 


Iron Maiden
Fear of the dark (Live)par
par
	abpar
h - hammer-onpar
^ - pull-offpar
/  - slidepar
b - bendpar
~  - vibratopar
par
par
Intro (Guitar1)par
par
E|---------------------------------|------------------------------------|-|par
B|---------------------------------|---------------5-5---------5--------|-|par
G|-7-----7-7-9-9-10-10-9-9-7-7-9-9-|-5-----5-5-7-7-----7-7-5-5---5------|-|par
D|---7-7---------------------------|---5-5------------------------------|-|par
A|---------------------------------|------------------------------------|-|par
E|---------------------------------|------------------------------------|-|par
(twice)par
par
E|-----------------------------------|----------------------------------|-|par
B|-----------------------------------|----------------------------------|-|par
G|-----------------------------------|-----------------4-4---------4----|-|par
D|-7-7-----7-7-9-9-10-10-9-9-7-7-9-9-|-5-5-----5-5-7-7-----7-7-5-5---5--|-|par
A|-----7-7---------------------------|-----5-5--------------------------|-|par
E|-----------------------------------|----------------------------------|-|par
par
E|-----------------------------------|----------------------------------|--------|par
B|-----------------------------------|----------------------------------|--------|par
G|-----------------------------------|-----------------2-2---------2----|--------|par
D|-7-7-----7-7-9-9-10-10-9-9-7-7-9-9-|-3-3-----3-3-5-5-----5-5-3-3---3--|--------|par
A|-----7-7---------------------------|-----3-3--------------------------|--------|par
E|-----------------------------------|----------------------------------|--------|par

Lead guitar (accoustic)
                       
   D        Bb         C      Bb    C     D          Bb     C

E|---------------------------------------------------------------------------
B|----------8----------------------------------------8-----------------------
G|---7-9-10---10-9---------------------10-7---7-9-10---10-9------------------
D|-7---------------10----10----8-10-10------7---------------10---------------
A|--------------------10----10-----------------------------------------------
E|---------------------------------------------------------------------------
(twice)


D        Bb             C                  Bb      C      D
I am a man who walks alone  And when I'm walking a dark road
                Bb                 C       Bb C  D
At night or strolling through the park
          Bb              C                   F      G      D
When the light begins to change  I sometimes feel a little strange
          Bb                C
A little anxious when it's dark


 C               Bb     C               D     C
  Fear of the dark, fear of the dark  
          Bb                 F           G      D
  I have a constant fear that someones always near
             Bb     C               D      C
  Fear of the dark, fear of the dark 
          Bb          F         G      D
  I have a phobia that someone's allways there


 D        Bb             C                  Bb      C      D
Have you run your fingers down the wall   And have you felt your neck skin crawl
                Bb                 C       Bb C  D
When you're searching for the light? 
          Bb              C                   F      G      D
Sometimes when you're scared to take a look   At the corner of the room
          Bb                C
You've sensed that something's watching you

Have you ever been alone at night  Thought you heard footsteps behind
And turned around and no one's there? 
And as you quicken up your pace  You find it hard to look again
Because you're sure there's someone there

Watching horror films the night before  Debating wiches and folklore
The unkown troubles on your mind
Maybe your mind is playing tricks  You sense and suddenly eyes fix
On dancing shadows from behind

  Fear of the dark, fear of the dark
  I have a constant fear that someones always near
  Fear of the dark, fear of the dark
  I have a phobia that someone's allways there

When I'm walking a dark road
I am a man who walkes alone

Тональность:

Это должно быть в ТОП-листе! - Топ-лист композиций



Назад
Рекомендуем посмотреть другие песни исполнителя «Iron Maiden»:

  • Комменты Fb ()
  • Комменты ВК



Добавить в Избранное Браузера
Сохранить здесь Очистить


x

0


+
-

+
-

-

Авторизация





Зарегистрироваться

M

Дата и время

  • 08:34:05
     

Социальные ссылки


Наши приложения

  • Muzbank App Play Market
  • Muzbank Amazon App
  • Muzbank Bitcoin13igjuWJj2R4cHiyZqP7Q3ggVvfXE9j82Q