MUZBANK


МУЗЫКАЛЬНО-ИНФОРМАЦИОННЫЙ БАНК





IIron Maiden • Fear Of The Dark (tab) (аккорды и текст - chords & lyrics)


715

Print

Видео «Fear Of The Dark (tab) (Iron Maiden)»

Видео клипы к песне подбираются автоматически сайтом youtube. Возможны некоторые несоответствия клипов песне.

↑ Спрятать рекламу ↑







Intro (w/distortion)
 
 E----------------------------------------------------
 B--------------------------5-5---------5-------------
 G|-7-----7-7-9-9-10-10-9-9-7-7-9-9-|-5-----5-5-7-7-----7-7-5-5---5-----------
 D|---7-7---------------------------|---5-5-----------------------------------
 A----------------------------------------------------
 E----------------------------------------------------
 (twice)
 
 E----------------------------------------------------
 B----------------------------------------------------
 G------------------------------4-4---------4---------
 D|-7-7-----7-7-9-9-10-10-9-9-7-7-9-9-|-5-5-----5-5-7-7-----7-7-5-5---5-------
 A|-----7-7---------------------------|-----5-5-------------------------------
 E----------------------------------------------------
 
 E----------------------------------------------------
 B----------------------------------------------------
 G------------------------------2-2---------2---------
 D|-7-7-----7-7-9-9-10-10-9-9-7-7-9-9-|-3-3-----3-3-5-5-----5-5-3-3---3-------
 A|-----7-7---------------------------|-----3-3-------------------------------
 E----------------------------------------------------
                                                                      |
                                                               dive _/
                                                               slowly
 
 
 The chord in the Verse are: D Bb C
 
         The chords are played in the following form:
 
 (for example C:)
 
 E--------|
 B|----5---5---5---5--|
 G|------5---5---5----|
 D|--3----------------|
 A--------|
 E--------|
 
 
 
 Lead guitar (accoustic)
                        
    D        Bb         C      Bb    C     D          Bb     C
 
 E----------------------------------------------------------------
 B|----------8----------------------------------------8-----------------------
 G|---7-9-10---10-9---------------------10-7---7-9-10---10-9------------------
 D|-7---------------10----10----8-10-10------7---------------10---------------
 A---------10----10-----------------------------------------------
 E----------------------------------------------------------------
 (twice)
 
 
 D        Bb             C                  Bb      C      D
 __I am a man who walks alone, and when I`m walking a dark road
 
                Bb                 C       Bb C  D
 at night or strolling through the park
 
          Bb              C                   F      G      D
 When the lights begin to change, I sometimes feel a little strange
 
          Bb                C
 a little anxious when it`s dark
 
 
 
 C               Bb     C               D     C
 ___ Fear of the dark ,____ Fear of the dark,____
 
          Bb                 F           G      D
 I have a constant fear that something`s always near
 
             Bb     C               D      C
 Fear of the dark, ____ Fear of the dark, ____
 
          Bb          F         G      D
 I have a phobia that someone`s always there
 
 
 Chorus: (w/distortion)
 
 E----------------------------------------------------
 B----------------------------------------------------
 G----------------------------------------------------
 D|-----7-7-5-5-7-7-----7-7-5-5-7-7-------5-5---------------------
 A|-5-5-------------5-5-------------|-----5-5-7-7-8-8-----8-8-7---------------
 E----------------------|-5-5-------------------------------------
 
   
 
 
 Verse
 
 
         The verse has the same chords that the part above, but they`re
 played with distortion. Hear very carefully the song so you can catch
 the rhythm.
 
 Here are the lyrics:
 
 Have you run your fingers down the wall
 And have you felt your neck skin crawl
 When you`re searching for the light
 Sometimes when you`re scared to take a look
 At the corner of the room
 You`ve sensed that something`s watching you
 
 
 Solo:
 
 (The easy part)
 
 E----------------------------------------------|
 B----------------------------------------------|
 G|-7--7-7-9-10-9~-10-9-7--7--------------------|
 D---------------10-8--8-7-5-7^-7~--------------|
 A----------------------------------------------|
 E----------------------------------------------|
 
 E----------------------------------------------|
 B----------------------------------------------|
 G|-7--7-7-9-10-9~-10-9-7--7----------5-7~------|
 D---------------10-8-7-5-----------------------|
 A----------------------------------------------|
 E----------------------------------------------|
 
 E----------------------------------------------------------------------------
 B----8---------------8-------------------------------------------------------
 G|---7~---7-9-10---10-9---7-9-10---10-9--7-----------------------------------
 D|-7----7---------------7------------------10-7-7^-7~------------------------
 A----------------------------------------------------------------------------
 E----------------------------------------------------------------------------
 
 E----------------------------------------------------------------------------
 B----8---------------8--------------10^-10~----------------------------------
 G|---7~---7-9-10---10-9---7-9-10---10-9--7-----------------------------------
 D|-7----7---------------7------------------10-7------------------------------
 A----------------------------------------------------------------------------
 E----------------------------------------------------------------------------
 
 
 {Solo-Really-Fast-Difficult-To-Catch}
 
 Solo:
 
 (Again, an easy part)
 
 E----------------------------------------------------------------------------
 B|-------10-6-8~-------10-6-8-6----------------------------------------------
 G|-7-7-7---------7-7-7----------------10-7-9~-------10-7-9-5--------7-3-5----
 D-------------------8-8-8---------8-8-8-----------5-5-5----------------------
 A----------------------------------------------------------------------------
 E----------------------------------------------------------------------------
 
 E----------------------------------------------------------------
 B----------------------------------------------------------------
 G|-------10-7-9-------7----7-5---5-7---7-5---5-------------------
 D|-7-7-7--------10-7--7--7-----7-----7-----7---------------------
 A----------------------------------------------------------------
 E----------------------------------------------------------------
 
         Then, comes the Chorus again, the last verse, and the outro,
 that is similar to the Intro, so you can get it easy.
 
 
  Fear Of The Dark  Iron Maiden /chords/

D        Bb             C                  Bb      C      D
I am a man who walks alone  And when I'm walking a dark road
                Bb                 C       Bb C  D
At night or strolling through the park
          Bb              C                   F      G      D
When the light begins to change  I sometimes feel a little strange
          Bb                C
A little anxious when it's dark


 C               Bb     C               D     C
  Fear of the dark, fear of the dark  
          Bb                 F           G      D
  I have a constant fear that someones always near
             Bb     C               D      C
  Fear of the dark, fear of the dark 
          Bb          F         G      D
  I have a phobia that someone's allways there


 D        Bb             C                  Bb      C      D
Have you run your fingers down the wall   And have you felt your neck skin crawl
                Bb                 C       Bb C  D
When you're searching for the light? 
          Bb              C                   F      G      D
Sometimes when you're scared to take a look   At the corner of the room
          Bb                C
You've sensed that something's watching you




 D        Bb             C                  Bb      C      D
Have you ever been alone at night  Thought you heard footsteps behind
                Bb                 C       Bb C  D
And turned around and no one's there? 
          Bb              C                   F      G      D
And as you quicken up your pace  You find it hard to look again
          Bb                C
Because you're sure there's someone there

Watching horror films the night before  Debating wiches and folklore
The unkown troubles on your mind
Maybe your mind is playing tricks  You sense and suddenly eyes fix
On dancing shadows from behind

  Fear of the dark, fear of the dark
  I have a constant fear that someones always near
  Fear of the dark, fear of the dark
  I have a phobia that someone's allways there

When I'm walking a dark road
I am a man who walkes alone



/Full guitar tab/


Gtr I (E A D G B E) - Distortion
Gtr II (E A D G B E) - Distortion
Gtr III (E A D G B E) - Clean
Gtr IV (E A D G B E) - Clean
Gtr V (E A D G B E) - Distortion

   Intro
    Q=160
    D                                   C
   4/4
    Gtr I
    E E E E E E E E   E E E E E E E E   E E E E E E E E   E E E E E E E E
||------------------|-----------------|-----------------|------------------||
||o-------------5-5-|-6-6-5-5-----5-5-|-----------------|-5-5---------5---o||
||--7-7-----7-7-----|---------7-7-----|-5-5-----5-5-7-7-|-----7-7-5-5---5--||
||------7-7---------|-----------------|-----5-5---------|------------------||
||o-----------------|-----------------|-----------------|-----------------o||
||------------------|-----------------|-----------------|------------------||
|
|   Gtr II
|   PM------------------------------------------------------------------|
|   E E E E E E E E   E E E E E E E E   E E E E E E E E   E E E E E E E E
||------------------|-----------------|-----------------|------------------||
||o-----------------|-----------------|-----------------|-----------------o||
||------------------|-----------------|-----------------|------------------||
||------------------|-----------------|-----------------|-------------2----||
||o-5-5-----5-5-7-7-|-8-8-7-7-5-5-7-7-|-3-3-----3-3-5-5-|-7-7-5-5-3-3---3-o||
||------5-5---------|-----------------|-----3-3---------|------------------||


  A                                     G
  E E E E E E E E    E  E E E E E E E   E E E E E E E E   E E E E E E E E
|-----------------|-------------------|-----------------|-----------------|
|-----------------|-------------------|-----------------|-----------------|
|-----------------|-------------------|-----------------|-----------------|
|-7-7-----7-7-9-9-|-10-10-9-9-7-7-9-9-|-5-5-----5-5-7-7-|-9-9-7-7-5-5-9-5-|
|-----7-7---------|-------------------|-----5-5---------|-----------------|
|-----------------|-------------------|-----------------|-----------------|
|
| PM--------------------------------------------------------------------|
| E E E E E E E E    E  E E E E E E E   E E E E E E E E   E E E E E E E E
|-----------------|-------------------|-----------------|-----------------|
|-----------------|-------------------|-----------------|-----------------|
|-----------------|-------------------|-----------------|-----------------|
|-----------------|-------------------|-5-5-----5-5-7-7-|-9-9-7-7-5-5-9-5-|
|-0-0-----0-0-2-2-|--3--3-2-2-0-0-2-2-|-----5-5---------|-----------------|
|-----0-0---------|-------------------|-----------------|-----------------|


                                      H.=H
  A                                     F                 A
  E E E E E E E E    E  E E E E E E E   E E E E E E E E   E E E E E E E E
|-----------------|-------------------|-----------------|-----------------|
|-----------------|-------------------|-----------------|-----------------|
|-----------------|-------------------|-----------------|-------------2---|
|-7-7-----7-7-9-9-|-10-10-9-9-7-7-9-7-|-3-3-----3-3-5-5-|-7-7-5-5-3-3---3-|
|-----7-7---------|-------------------|-----3-3---------|-----------------|
|-----------------|-------------------|-----------------|-----------------|
|
| PM--------------------------------------------------------------------|
| E E E E E E E E    E  E E E E E E E   E E E E E E E E   E E E E E E E E
|-----------------|-------------------|-----------------|-----------------|
|-----------------|-------------------|-----------------|-----------------|
|-----------------|-------------------|-----------------|-------------2---|
|-----------------|-------------------|-3-3-----3-3-5-5-|-7-7-5-5-3-3---3-|
|-0-0-----0-0-2-2-|--3--3-2-2-0-0-2-2-|-----3-3---------|-----------------|
|-----0-0---------|-------------------|-----------------|-----------------|


 Pre-Verse
  Q=80
           D                     Bb
 2/4      4/4
  Gtrs I, II
   >
  +H       +W
|--------|-----------------------------------------|
|--------|-----------------------------------------|
|--------|-----------------------------------------|
|-(3)----|-(3)-------------------------------------|
|--------|-----------------------------------------|
|--------|-----------------------------------------|
|
| Gtr III
|                     |--3---|   |--3--|
|  H        E    S S +Q      E   Q     E   E   S S
|--------|-----------------------------------------|
|--------|-------------------5---6-----8---6---5---|
|--------|---------7-(7)-------------------------5-|
|--------|-------7---------------------------------|
|--------|-----------------------------------------|
|--------|-----------------------------------------|
|
| Gtr IV
|  H        S  S S S  S  S S   S S S S   S S S S S
|--------|-----------------------------------------|
|--------|-----------------------------------------|
|--------|-----------------------------------------|
|--------|-----7---7-----7-----7---3-----3---3---3-|
|--------|--5----5----5----5-----1---1-----1---1---|
|--------|-----------------------------------------|


  C                 Bb
  +W
|-------------------------------------|
|-------------------------------------|
|-------------------------------------|
|-(3)---------------------------------|
|-------------------------------------|
|-------------------------------------|
|
| +E.     S Q       E   E   E   S S
|-------------------------------------|
|-------------------------------6-----|
|-(5)-------5-------3---5---5-----7---|
|---------5---------------------------|
|-------------------------------------|
|-------------------------------------|
|
|  S  S S S S S S S S S S S S S S S
|-------------------------------------|
|-------------------------------------|
|-------------------------------------|
|-----5---5---5---5---3---3---3---3---|
|--3----3---3---3---1---1---1---1-----|
|-------------------------------------|


  D                   Bb
  Gtr III
   |--3---|            |--3---|
  +Q      E   E   S S +Q      E   E   S S
|-----------------------------------------|
|-----------------5-6-(6)-----8---6---5---|
|-(7)---------7-------------------------5-|
|---------7-------------------------------|
|-----------------------------------------|
|-----------------------------------------|
|
| Gtr IV
|  S  S S   S S S S S  S  S S   S S S S S
|-----------------------------------------|
|-----------------------------------------|
|-----------------------------------------|
|-----7-----7---7---7-----3-----3---3---3-|
|--5----5-----5---5----1----1-----1---1---|
|-----------------------------------------|


  C                                   D                 Bb
                                      |--3--|            |--3---|
  +W                                  Q     E   E   S S +Q      E   E   S S
|-----------------------------------|---------------------------------------|
|-----------------------------------|---------------5-6-(6)-----8---6---5---|
|-(5)-------------------------------|-----------7-------------------------5-|
|-----------------------------------|-------7-------------------------------|
|-----------------------------------|---------------------------------------|
|-----------------------------------|---------------------------------------|
|
|  S  S S S S S S S S S S S S S S S   S S S   S S S S S  S  S S   S S S S S
|-----------------------------------|---------------------------------------|
|-----------------------------------|---------------------------------------|
|-----------------------------------|---------------------------------------|
|-----5---5---5---5---5---5---5---5-|---7-----7---7---7-----3-----3---3---3-|
|--3----3---3---3---3---3---3---3---|-5---5-----5---5----1----1-----1---1---|
|-----------------------------------|---------------------------------------|


  C                Bb                  D                   Bb
                                        |--3---|
  E.     S E   S S +E.     S E   S S   +Q      E   E   S S +E    S S +E    S S
|------------------------------------|-----------------------------------------|
|--------------------------------6---|-----------------5-6-(6)---8-6-(6)p==5---|
|-5--------5-----3-(3)S====5-5-----7-|-(7)---------7-------------------------5-|
|--------5-----5---------------------|---------7-------------------------------|
|------------------------------------|-----------------------------------------|
|------------------------------------|-----------------------------------------|
|
| S  S S S S S S S  S  S S S S S S S    S  S S   S S S S S  S  S S S  S  S S S
|------------------------------------|-----------------------------------------|
|------------------------------------|-----------------------------------------|
|------------------------------------|-----------------------------------------|
|----5---5---5---5-----3---3---5---5-|-----7-----7---7---7-----3---3-----3---3-|
|-3----3---3---3----1----1---3---3---|--5----5-----5---5----1----1----1----1---|
|------------------------------------|-----------------------------------------|


  C
  +W
|--------------------------------------|
|--------------------------------------|
|-(5)----------------------------------|
|--------------------------------------|
|--------------------------------------|
|--------------------------------------|
|
|  S  S S S S S S S S S S S S S S S
|--------------------------------------|
|--------------------------------------|
|--------------------------------------|
|-----5---5---5---5---5---5---5---5----|
|--3----3---3---3---3---3---3---3------|
|--------------------------------------|


   Verse
                                      1.,2.
    D               Bb                C               Bb
    S S S S S S S S S S S S S S S S   S S S S S S S S S S S S S S S S
||----------------------------------|-----------------------------------||
||o---------------------------------|----------------------------------o||
||----------------------------------|-----------------------------------||
||----7---7---7---7---3---3---3---3-|---5---5---5---5---3---3---5---5---||
||o-5---5---5---5---1---1---1---1---|-3---3---3---3---1---1---3---3----o||
||----------------------------------|-----------------------------------||


  3.
  C               F       G         D               Bb
  S S S S S S S S S S S S S S S S   S S S S S S S S S S S S S S S S
|---------------------------------|---------------------------------|
|---------------------------------|---------------------------------|
|-------------------5---5---7---7-|---------------------------------|
|---5---5---5---5-3---3---5---5---|---7---7---7---7---3---3---3---3-|
|-3---3---3---3-------------------|-5---5---5---5---1---1---1---1---|
|---------------------------------|---------------------------------|


                                     Chorus
  C                                   Bb              C
  S S S S S S S S S S S S S S S S     S S S S S S S S S S S S S S S S
|---------------------------------||----------------------------------|
|---------------------------------||o---------------------------------|
|---------------------------------||----------------------------------|
|---5---5---5---5---5---5---5---5-||----3---3---3---3---5---5---5---5-|
|-3---3---3---3---3---3---3---3---||o-1---1---1---1---3---3---3---3---|
|---------------------------------||----------------------------------|


  D               C                 Bb              F       G
  S S S S S S S S S S S S S S S S   S S S S S S S S S S S S S S S S
|---------------------------------|---------------------------------|
|---------------------------------|---------------------------------|
|---------------------------------|-------------------5---5---7---7-|
|---7---7---7---7---5---5---5---5-|---3---3---3---3-3---3---5---5---|
|-5---5---5---5---3---3---3---3---|-1---1---1---1-------------------|
|---------------------------------|---------------------------------|


  1.                                  2.
  D
                                                                  Gtrs I, II
  S S S S S S S S S S S S S S S S     S S S S S S S S S S S S S S E
|----------------------------------||-------------------------------|
|---------------------------------o||-------------------------------|
|----------------------------------||-------------------------------|
|---7---7---7---7---7---7---7---7--||---7---7---7---7---7---7-------|
|-5---5---5---5---5---5---5---5---o||-5---5---5---5---5---5---5---5-|
|----------------------------------||-------------------------------|


    Faster Q=200
    D
    +E  E E E E E E E   E E E E E E E E   +E  E E E E E E E   E E E E E E E E
||--------------------|-----------------|-------------------|------------------|
||o-------------------|-----------------|-------------------|------------------|
||--------------------|-----------------|-------------------|------------------|
||--------7-7-5-5-7-7-|-----7-7-5-5-7---|-------7-7-5-5-7-7-|-----7-7-5-5-7----|
||o-(5)-5-------------|-5-5-----------5-|-(5)-5-------------|-5-5-----------5--|
||--------------------|-----------------|-------------------|------------------|


  +E  E E E E E E E   E E E E E E E E
|-------------------|-----------------|
|-------------------|-----------------|
|-------------------|-----------------|
|-------7-7-5-5-7-7-|-----7-7-5-5-7---|
|-(5)-5-------------|-5-5-----------5-|
|-------------------|-----------------|


                      1.                  2.
  +E  E E E E E E E   E E E E E E E E     E E E E E E E E
|-------------------|------------------||-----------------|
|-------------------|-----------------o||-----------------|
|-------------------|------------------||-----------------|
|-------------------|-----5-5----------||-----5-5-------7-|
|-(5)-5-----5-5-7-7-|-8-8-----8-8-7-5-o||-8-8-----8-7-5-5-|
|-------5-5---------|------------------||-----------------|


   Verse
    D5                        Bb5                           C5
    +H..       E   +H..       E   +H..       E   +H..       E
||---------------|--------------|--------------|---------------|
||o--------------|--------------|--------------|---------------|
||---------------|--------------|--------------|---------------|
||--(7)--------7-|-(7)--------3-|-(3)--------3-|-(3)--------5--|
||o-(5)--------5-|-(5)--------1-|-(1)--------1-|-(1)--------3--|
||---------------|--------------|--------------|---------------|


                                               1.               2.
                            D5                                             Bb5
  +H..       E   +H..       E   +H..       E   +H..       E     +H..       E
|--------------|--------------|--------------|---------------||--------------|
|--------------|--------------|--------------|--------------o||--------------|
|--------------|--------------|--------------|---------------||--------------|
|-(5)--------5-|-(5)--------7-|-(7)--------7-|-(7)--------7--||-(7)--------3-|
|-(3)--------3-|-(3)--------5-|-(5)--------5-|-(5)--------5-o||-(5)--------1-|
|--------------|--------------|--------------|---------------||--------------|


   Chorus
                 C5               D5               C5               Bb5
    +H     +Q.   E   +H     +Q.   E   +H     +Q.   E   +H     +Q.   E
||-----------------|----------------|----------------|-----------------|
||o----------------|----------------|----------------|-----------------|
||-----------------|----------------|----------------|-----------------|
||--(3)----(3)---5-|-(5)----(5)---7-|-(7)----(7)---5-|-(5)----(5)---3--|
||o-(1)----(1)---3-|-(3)----(3)---5-|-(5)----(5)---3-|-(3)----(3)---1--|
||-----------------|----------------|----------------|-----------------|


               F5        G5      D5
  +H     +Q.   E   +Q.   E +Q.   E
|----------------|-----------------|
|----------------|-----------------|
|----------------|-----------------|
|-(3)----(3)-----|---------------7-|
|-(1)----(1)---3-|-(3)---5-(5)---5-|
|--------------1-|-(1)---3-(3)-----|


               1.                 2.
                            Bb5   D5
  +W           +H     +Q.   E     H..       E
|------------|-----------------||-------------|
|------------|----------------o||-------------|
|------------|-----------------||-------------|
|-(7)--------|-(7)----(7)---3--||-7---------7-|
|-(5)--------|-(5)----(5)---1-o||-5---------5-|
|------------|-----------------||-------------|


 Verse
  $
               Bb5              C5               D5        C5      D5
  +H     +Q.   E   +H     +Q.   E   +H     +Q.   E   +Q.   E +Q.   E
|----------------|----------------|----------------|-----------------|
|----------------|----------------|----------------|-----------------|
|----------------|----------------|----------------|-----------------|
|-(7)----(7)---3-|-(3)----(3)---5-|-(5)----(5)---7-|-(7)---5-(5)---7-|
|-(5)----(5)---1-|-(1)----(1)---3-|-(3)----(3)---5-|-(5)---3-(3)---5-|
|----------------|----------------|----------------|-----------------|


               Bb5              C5                            D5
  +H     +Q.   E   +H     +Q.   E   +W           +H     +Q.   E
|----------------|----------------|------------|----------------|
|----------------|----------------|------------|----------------|
|----------------|----------------|------------|----------------|
|-(7)----(7)---3-|-(3)----(3)---5-|-(5)--------|-(5)----(5)---7-|
|-(5)----(5)---1-|-(1)----(1)---3-|-(3)--------|-(3)----(3)---5-|
|----------------|----------------|------------|----------------|


               Bb5              C5             F5        G5      D5
  +H     +Q.   E   +H     +Q.   E   +H..       E   +Q.   E +Q.   E
|----------------|----------------|--------------|-----------------|
|----------------|----------------|--------------|-----------------|
|----------------|----------------|--------------|-----------------|
|-(7)----(7)---3-|-(3)----(3)---5-|-(5)----------|---------------7-|
|-(5)----(5)---1-|-(1)----(1)---3-|-(3)--------3-|-(3)---5-(5)---5-|
|----------------|----------------|------------1-|-(1)---3-(3)-----|


               Bb5              C5                            Bb5
  +H     +Q.   E   +H     +Q.   E   +W           +H     +Q.   E
|----------------|----------------|------------|----------------|
|----------------|----------------|------------|----------------|
|----------------|----------------|------------|----------------|
|-(7)----(7)---3-|-(3)----(3)---5-|-(5)--------|-(5)----(5)---3-|
|-(5)----(5)---1-|-(1)----(1)---3-|-(3)--------|-(3)----(3)---1-|
|----------------|----------------|------------|----------------|


   Chorus
                   C5                 D5                 C5                 Bb5
        PM|    PM|         PM|    PM|         PM|    PM|         PM|    PM|
    +E  E E Q  E E E   +E  E E Q  E E E   +E  E E Q  E E E   +E  E E Q  E E E
||-------------------|------------------|------------------|-------------------|
||o------------------|------------------|------------------|-------------------|
||-------------------|------------------|------------------|-------------------|
||--(3)-----3------5-|-(5)-----5------7-|-(7)-----7------5-|-(5)-----5------3--|
||o-(1)-1-1-1--1-1-3-|-(3)-3-3-3--3-3-5-|-(5)-5-5-5--5-5-3-|-(3)-3-3-3--3-3-1--|
||-------------------|------------------|------------------|-------------------|


                                              To Coda
                 F5/C      G5/D D5
      PM|    PM|                        PM|    PM|
  +E  E E Q  E E E   +Q.   H    E   +E  E E Q  E E E
|------------------|--------------|------------------|
|------------------|--------------|------------------|
|----------------5-|-(5)---7------|------------------|
|-(3)-----3------3-|-(3)---5----7-|-(7)-----7------7-|
|-(1)-1-1-1--1-1-3-|-(3)---5----5-|-(5)-5-5-5--5-5-5-|
|------------------|--------------|------------------|


  1.                   2.
                 Bb5    D5
      PM|    PM|          PM|    PM|
  +E  E E Q  E E E      E E E Q  E E E
|-------------------||-------------------|
|------------------o||-------------------|
|-------------------||-------------------|
|-(7)-----7------3--||--7-----7----------|
|-(5)-5-5-5--5-5-1-o||--5-5-5-5--5-5-5---|
|-------------------||-------------------|


    D
    +E  E E E E E E E   E E E E E E E E   +E  E E E E E E E   E E E E E E E E
||--------------------|-----------------|-------------------|------------------|
||o-------------------|-----------------|-------------------|------------------|
||--------------------|-----------------|-------------------|------------------|
||--------7-7-5-5-7-7-|-----7-7-5-5-7---|-------7-7-5-5-7-7-|-----7-7-5-5-7----|
||o-(5)-5-------------|-5-5-----------5-|-(5)-5-------------|-5-5-----------5--|
||--------------------|-----------------|-------------------|------------------|


  +E  E E E E E E E   E E E E E E E E
|-------------------|-----------------|
|-------------------|-----------------|
|-------------------|-----------------|
|-------7-7-5-5-7-7-|-----7-7-5-5-7---|
|-(5)-5-------------|-5-5-----------5-|
|-------------------|-----------------|


                      1.                  2.
  +E  E E E E E E E   E E E E E E E E     E E E E E E E E
|-------------------|------------------||-----------------|
|-------------------|-----------------o||-----------------|
|-------------------|------------------||---------------7-|
|-------------------|-----5-5----------||-----5-5---------|
|-(5)-5-----5-5-7-7-|-8-8-----8-8-7-5-o||-8-8-----8-7-5---|
|-------5-5---------|------------------||-----------------|


 Interlude
  Slower Q=120
  D                                  Bb                     A
  +H     Q  Q    Q.   S S Q.   S S   Q.   S S Q  E    +E    +W
|--------------|-------------------|----------------------|--------|
|--------5--6--|-5----6-5----------|----------------------|--------|
|-(7)----------|----------7----7-5-|----------------------|--------|
|--------------|-------------------|-8----8-7-5--7b8==(7)r|=(7)----|
|--------------|-------------------|----------------------|--------|
|--------------|-------------------|----------------------|--------|


  D                                Bb               D
  H    Q  Q    Q.   S S Q.   S S   Q.   S S Q  Q    H    +Q.   E
|------------|-------------------|----------------|---------------|
|------5--6--|-5----6-5----------|----------------|---------------|
|-7----------|----------7----7-5-|-------------5--|-7----(7)------|
|------------|-------------------|-8----8-7-5-----|------------7--|
|------------|-------------------|----------------|---------------|
|------------|-------------------|----------------|---------------|


  D                                     F                      A
  H    +E  E E E   E S S Q  +E  E E E   E S S Q  +E  S S E E   H    +Q.   E
|----------------|--------------------|----------------------|---------------|
|--------------5-|-6-8-6-5--(5)-----5-|-6-8-6-5--(5)---------|---------------|
|-7----(7)---7---|----------------7---|--------------7-5-----|---------------|
|----------7-----|--------------7-----|------------------7-8-|-7----(7)---7--|
|----------------|--------------------|----------------------|---------------|
|----------------|--------------------|----------------------|---------------|


  D
  H    +E  E E E   E S S Q  +E  E E E
|----------------|--------------------|
|--------------5-|-6-8-6-5--(5)-----5-|
|-7----(7)---7---|----------------7---|
|----------7-----|--------------7-----|
|----------------|--------------------|
|----------------|--------------------|


  F                A
  E S S Q  E S S E  E        +E   +E.  +H      +E.
|-------------------------|------------------------|
|-6-8-6-5--5-------10b11==|=(10)-(10)r(10)----(10)-|
|------------7-5----------|------------------------|
|----------------7--------|------------------------|
|-------------------------|------------------------|
|-------------------------|------------------------|


 Guitar Solo
         D5
  Gtr I
                                        ~~
   a       Q     a      +S   +S   S  S  Q   +E  a  a  E
|-------------------------------------------------------|
|---------13--------------------------------------------|
|-12b14==(12)r--12b14==(12)r(12)-10----10--(10)s0-------|
|-----------------------------------12------------------|
|-------------------------------------------------10h12-|
|-------------------------------------------------------|
|
|        Gtr II
|          W
|-------------------------------------------------------|
|-------------------------------------------------------|
|-------------------------------------------------------|
|----------7--------------------------------------------|
|----------5--------------------------------------------|
|-------------------------------------------------------|


                                              Bb5                   C5
                                                      |-----5-----|
   E.  S      +E    S  S  +Q.    a      +E     +Q     S  S  S  S  S  S  S  S  S  S  S  S  S
|------------------10-10-(10)---13b15==(13)-|-(13)r--13-12-10----10-------------------------|
|------------------10-10-(10)---------------|-----------------10----13-11p10----10----------|
|-10--12b14==(12)r--------------------------|--------------------------------12----12p10----|
|-10----------------------------------------|--------------------------------------------12-|
|-------------------------------------------|-----------------------------------------------|
|-------------------------------------------|-----------------------------------------------|
|
| +W                                            H                    H
|-------------------------------------------|-----------------------------------------------|
|-------------------------------------------|-----------------------------------------------|
|-------------------------------------------|-----------------------------------------------|
|-(7)---------------------------------------|---3--------------------5----------------------|
|-(5)---------------------------------------|---1--------------------3----------------------|
|-------------------------------------------|-----------------------------------------------|


  D5
      ~~                                                  PM---|
                                                          |--3--|
   E  Q   E  +E   +Q    E    a      +Q     S  S  S  S  S  S  S  S  S  E  E
|-------------------------|-15b17==(15)r--15-13s12-13----------------------|
|-------------------------|---------------------------13----------13-------|
|-10-12--10-(10)-(10)\----|------------------------------------12----12s10-|
|-------------------------|---------------------------------14-------------|
|-------------------------|------------------------------15----------------|
|-------------------------|------------------------------------------------|
|
|  W                                 W
|-------------------------|------------------------------------------------|
|-------------------------|------------------------------------------------|
|-------------------------|------------------------------------------------|
|--7----------------------|----------7-------------------------------------|
|--5----------------------|----------5-------------------------------------|
|-------------------------|------------------------------------------------|


   a       Q     a      +S   +S   S  S  H
|--------------------------------------------|
|---------10---------------------------------|
|-12b14==(12)r--12b14==(12)r(12)-10----10----|
|-----------------------------------12-------|
|--------------------------------------------|
|--------------------------------------------|
|
|          W
|--------------------------------------------|
|--------------------------------------------|
|--------------------------------------------|
|----------7---------------------------------|
|----------5---------------------------------|
|--------------------------------------------|


         Bb5                         C5
   a       Q     a      +S   S  S  S  S  S  S  S  S  S  S S
|---------13------------------------------------------------|
|---------13------------------------------------------------|
|-12b14==(12)r--12pb14r(12)p10----10------------------------|
|------------------------------12----12p10----10------------|
|------------------------------------------12----12-11-10p8-|
|-----------------------------------------------------------|
|
|          H                          H
|-----------------------------------------------------------|
|-----------------------------------------------------------|
|-----------------------------------------------------------|
|----------3--------------------------5---------------------|
|----------1--------------------------3---------------------|
|-----------------------------------------------------------|


  D5
   S  S  E  H.
|---------------------------------|
|---------------------------------|
|---------------------------------|
|---------------------------------|
|-10p=8---------------------------|
|-------10-10\--------------------|
|
|  H..              S  a      +S
|---------------------17b19==(17)-|
|------------------14-------------|
|---------------------------------|
|--7------------------------------|
|--5------------------------------|
|---------------------------------|


 Guitar Solo 2
  F#5
    W
|------------------------------------------------------|
|------------------------------------------------------|
|---6--------------------------------------------------|
|---4--------------------------------------------------|
|------------------------------------------------------|
|------------------------------------------------------|
|
|  +Q     +Q    S  S  T  T  T  T  T  T  T  T  S   T  T
|-(17)r--(17)--16-17-16p14h16p14----15p14--------------|
|--------------------------------17-------17p14\----14h|
|------------------------------------------------16----|
|------------------------------------------------------|
|------------------------------------------------------|
|------------------------------------------------------|


  F#5
   W
|----------------------------------------------------------------------------------|
|----------------------------------------------------------------------------------|
|--6-------------------------------------------------------------------------------|
|--4-------------------------------------------------------------------------------|
|----------------------------------------------------------------------------------|
|----------------------------------------------------------------------------------|
|
|                                               |--3--|  |--3--|
|  T  T  T  T  T  T  T  T  T  T  T  T  T  S  T  S  S  S  S  S  S  E  a      +E
|----------------------------------------------------------------------------------|
|-17p14----14h17p14----14-15p14----14-15p14----------------14h15-14-17b19==(17)r===|
|-------16----------16----------16----------16p14p13-14h16-------------------------|
|----------------------------------------------------------------------------------|
|----------------------------------------------------------------------------------|
|----------------------------------------------------------------------------------|


        D5                     E5
         H                      H
|---------------------------------------------------------------------|
|---------------------------------------------------------------------|
|--------2----------------------4-------------------------------------|
|--------0----------------------2-------------------------------------|
|---------------------------------------------------------------------|
|---------------------------------------------------------------------|
|
|                                           |--3--|
|  a  a  S  E  a  S  S  S  S S  T  T  T  T  S  S  S  S  S  T  T  T  T
|-------------15s17p14------------------------------------------------|
|-17s15s17p14----------17p14---15-14----14h17p14----14----------------|
|----------------------------x-------16----------16----16p14h16p14----|
|------------------------------------------------------------------16-|
|---------------------------------------------------------------------|
|---------------------------------------------------------------------|


  F#5
   W
|------------------------------------------------------------------------------|
|------------------------------------------------------------------------------|
|--6---------------------------------------------------------------------------|
|--4---------------------------------------------------------------------------|
|------------------------------------------------------------------------------|
|------------------------------------------------------------------------------|
|
|           |--3--|
|  S  T  T  S  S  S  +S   S  S  S  S  a      +S   +S   S  +E    S  a      +S
|--------------------------------------------------------------19-19b21==(19)--|
|------------------------------------------------------------------------------|
|-14------------------------------14-16b18==(16)r(16)-14-(14)\-----------------|
|----16p14-16p14------------14h16----------------------------------------------|
|----------------16-(16)-16----------------------------------------------------|
|------------------------------------------------------------------------------|


  F#5
    W
|--------------------------------------------|
|--------------------------------------------|
|---6----------------------------------------|
|---4----------------------------------------|
|--------------------------------------------|
|--------------------------------------------|
|
|                                    |--3--|
|  +Q    +E   +E   S  S  S  S  S  S  S  S  S
|-(19)--(19)r(19)-17s16----------------------|
|-----------------------17----------14h15h16-|
|--------------------------16s14h16----------|
|--------------------------------------------|
|--------------------------------------------|
|--------------------------------------------|


   W
|---------------------------------------------------------------------------|
|---------------------------------------------------------------------------|
|--6------------------------------------------------------------------------|
|--4------------------------------------------------------------------------|
|---------------------------------------------------------------------------|
|---------------------------------------------------------------------------|
|
|                                         |3-|  |--3--|
|  T  S  T  T  T  T  T  S  T  T  S  T  T  E  S  S  S  S  S.  T  T  T  T  T
|-14h17p16p14----14h16p14---------------------------------------------------|
|-------------17----------17p15p14-14h15p14-14h15-14------------------------|
|----------------------------------------------------16s18--18h19p18h19p18--|
|---------------------------------------------------------------------------|
|---------------------------------------------------------------------------|
|---------------------------------------------------------------------------|


  D5                            E5
   H                             H
|-------------------------------------------------------------|
|-------------------------------------------------------------|
|--2-----------------------------4----------------------------|
|--0-----------------------------2----------------------------|
|-------------------------------------------------------------|
|-------------------------------------------------------------|
|
|  E  T  T  T  T  E  T  T  T  T  E  T  T  T  T  S  T  T  S  S
|-------------------------------------------------------------|
|-------------------------------------------------------14-19-|
|-19-18h19p18p16-18-16h18p16s14-16-14h16p14p13-14----14-------|
|-------------------------------------------------16----------|
|-------------------------------------------------------------|
|-------------------------------------------------------------|


  F#5
   H..                                   S S
|--------------------------------------------|
|--------------------------------------------|
|--6-------------------------------------7-7-|
|--4-----------------------------------------|
|--------------------------------------------|
|--------------------------------------------|
|
|       |--3--|  |3-|  |--3--|
|  E    S  S  S  E  S  S  S  S  Q   +Q
|--------------------------------------------|
|-19---14h19p14----------14-19-19--(19)\-----|
|---------------14----14---------------------|
|------------------14------------------------|
|--------------------------------------------|
|--------------------------------------------|


  D
  Gtrs I, II
  E E E E +Q.   S S   E E E E +E  Q  S S
|---5---3-(3)-------|---5----------------|
|-----6-------------|-----6-8-(8)-6------|
|-7-------------7-7-|-7--------------3-3-|
|-------------------|--------------------|
|-------------------|--------------------|
|-------------------|--------------------|


  Bb
  E E E E +Q.   S S   E E E E +E  E +E  S S
|-------------------|-----------------------|
|---6-3-5-(5)-------|---6-3-5-(5)-----------|
|-3-------------3-3-|-3-----------5-(5)-----|
|-------------------|-------------------5-5-|
|-------------------|-----------------------|
|-------------------|-----------------------|


  G                   A               DsusD
  E E E E +Q.   S S   E E E E +E  E Q
|-------------------|-------------------|
|---3---------------|---6---5-(5)-------|
|-----3-5-(5)-------|-----7-------5-----|
|-5-------------7-7-|-7-------------7---|
|-------------------|-------------------|
|-------------------|-------------------|
|
| Gtr V
| W                   Q   H         E E
|-------------------|-----------------0-|
|-------------------|-----------------3-|
|-------------------|-----------------2-|
|-------------------|-----------------0-|
|-------------------|-------------------|
|-------------------|-------------------|


   E  E E E +E  E E E   +E  E E E +E  E E E
|---------------------|----------------------|
|---------------------|----------------------|
|--7----7-5-(5)---5-7-|-(7)---7-5-(5)---5-7--|
|-----7---------7-----|-----7---------7------|
|---------------------|----------------------|
|---------------------|----------------------|
|
| +W                    +W
|-(0)-----------------|-(0)------------------|
|-(3)-----------------|-(3)------------------|
|-(2)-----------------|-(2)------------------|
|-(0)-----------------|-(0)------------------|
|---------------------|----------------------|
|---------------------|----------------------|


   Chorus
    D
    E E E E +Q.   S S   E E E E +E  Q  S S
||----5---3-(3)-------|---5----------------|
||o-----6-------------|-----6-8-(8)-6------|
||--7-------------7-7-|-7--------------3-3-|
||--------------------|--------------------|
||o-------------------|--------------------|
||--------------------|--------------------|


  Bb
  E E E E +Q.   S S   E E E E +E  E +E  S S
|-------------------|------------------------|
|---6-3-5-(5)-------|---6-3-5-(5)------------|
|-3-------------3-3-|-3-----------5-(5)------|
|-------------------|-------------------5-5--|
|-------------------|------------------------|
|-------------------|------------------------|


  G                   A               Dsus2
  E E E E +Q.   S S   E E E E +E  E Q      E  E E E +E  E E E
|-------------------|-------------------|---------------------|
|---3---------------|---6---5-(5)-------|---------------------|
|-----3-5-(5)-------|-----7-------5-----|--7----7-5-(5)---5-7-|
|-5-------------7-7-|-7-------------7---|-----7---------7-----|
|-------------------|-------------------|---------------------|
|-------------------|-------------------|---------------------|
|
| Gtr V
| W                   Q   H         E E   +W
|-------------------|-----------------0-|-(0)-----------------|
|-------------------|-----------------3-|-(3)-----------------|
|-------------------|-----------------2-|-(2)-----------------|
|-------------------|-----------------0-|-(0)-----------------|
|-------------------|-------------------|---------------------|
|-------------------|-------------------|---------------------|


  1.                      2.
  +E  E E E +E  E E E     +E  E E E +Q.   E
|----------------------||---------------------|
|---------------------o||---------------------|
|-(7)---7-5-(5)---5-7--||-(7)---7-5-(5)-------|
|-----7---------7------||-----7---------------|
|---------------------o||-----------------5---|
|----------------------||---------------------|
|
| +W                       W
|-(0)------------------||---------------------|
|-(3)-----------------o||---------------------|
|-(2)------------------||---------------------|
|-(0)------------------||---------------------|
|---------------------o||---------------------|
|----------------------||---------------------|


    Faster Q=200
    D
    +E  E E E E E E E   E E E E E E E E   +E  E E E E E E E   E E E E E E E E
||--------------------|-----------------|-------------------|------------------|
||o-------------------|-----------------|-------------------|------------------|
||--------------------|-----------------|-------------------|------------------|
||--------7-7-5-5-7-7-|-----7-7-5-5-7---|-------7-7-5-5-7-7-|-----7-7-5-5-7----|
||o-(5)-5-------------|-5-5-----------5-|-(5)-5-------------|-5-5-----------5--|
||--------------------|-----------------|-------------------|------------------|


  +E  E E E E E E E   E E E E E E E E
|-------------------|-----------------|
|-------------------|-----------------|
|-------------------|-----------------|
|-------7-7-5-5-7-7-|-----7-7-5-5-7---|
|-(5)-5-------------|-5-5-----------5-|
|-------------------|-----------------|


                      1.                  2.
                                            D.S. al Coda
                                                        D5
  +E  E E E E E E E   E E E E E E E E     E E E E E E E E
|-------------------|------------------||-----------------|
|-------------------|-----------------o||-----------------|
|-------------------|------------------||-----------------|
|-------------------|-----5-5----------||-----5-5-------7-|
|-(5)-5-----5-5-7-7-|-8-8-----8-8-7-5-o||-8-8-----8-7-5-5-|
|-------5-5---------|------------------||-----------------|


  &
                 Bb5                C5                 D5                 C5
      PM|    PM|         PM|    PM|         PM|    PM|         PM|    PM|
  +E  E E Q  E E E   +E  E E Q  E E E   +E  E E Q  E E E   +E  E E Q  E E E
|------------------|------------------|------------------|------------------|
|------------------|------------------|------------------|------------------|
|------------------|------------------|------------------|------------------|
|-(7)-----7------3-|-(3)-----3------5-|-(5)-----5------7-|-(7)-----7------5-|
|-(5)-5-5-5--5-5-1-|-(1)-1-1-1--1-1-3-|-(3)-3-3-3--3-3-5-|-(5)-5-5-5--5-5-3-|
|------------------|------------------|------------------|------------------|


                 Bb5                F5/C      G5/D D5
      PM|    PM|         PM|    PM|                        PM|    PM|
  +E  E E Q  E E E   +E  E E Q  E E E   +Q.   H    E   +E  E E Q  E E E
|------------------|------------------|--------------|------------------|
|------------------|------------------|--------------|------------------|
|------------------|----------------5-|-(5)---7------|------------------|
|-(5)-----5------3-|-(3)-----3------3-|-(3)---5----7-|-(7)-----7------7-|
|-(3)-3-3-3--3-3-1-|-(1)-1-1-1--1-1-3-|-(3)---5----5-|-(5)-5-5-5--5-5-5-|
|------------------|------------------|--------------|------------------|


                 Bb5                C5                 D5                 C5
      PM|    PM|         PM|    PM|         PM|    PM|         PM|    PM|
  +E  E E Q  E E E   +E  E E Q  E E E   +E  E E Q  E E E   +E  E E Q  E E E
|------------------|------------------|------------------|------------------|
|------------------|------------------|------------------|------------------|
|------------------|------------------|------------------|------------------|
|-(7)-----7------3-|-(3)-----3------5-|-(5)-----5------7-|-(7)-----7------5-|
|-(5)-5-5-5--5-5-1-|-(1)-1-1-1--1-1-3-|-(3)-3-3-3--3-3-5-|-(5)-5-5-5--5-5-3-|
|------------------|------------------|------------------|------------------|


  H.=H
                 Bb5                F5        G5   D5
      PM|    PM|         PM|    PM|
  +E  E E Q  E E E   +E  E E Q  E E E   +Q.   H    E   +W
|------------------|------------------|--------------|--------|
|------------------|------------------|--------------|--------|
|------------------|------------------|--------------|--------|
|-(5)-----5------3-|-(3)-----3--------|------------7-|-(7)----|
|-(3)-3-3-3--3-3-1-|-(1)-1-1-1--1-1-3-|-(3)---5----5-|-(5)----|
|------------------|----------------1-|-(1)---3------|--------|


 Outro
  Slower Q=80
  D                   Bb                  C                 Bb
  Gtr III
           |--3---|   |--3--|
  E   S S +Q      E   Q     E   E   S S   +E.     S Q       E   E   E   S S
|---------------------------------------|-----------------------------------|
|-----------------5---6-----8---6---5---|-------------------------------6---|
|-------7-(7)-------------------------5-|-(5)-------5-------3---5---5-----7-|
|-----7---------------------------------|---------5-------------------------|
|---------------------------------------|-----------------------------------|
|---------------------------------------|-----------------------------------|
|
| Gtr IV
| S S S S  S  S S   S S S S   S S S S S    S  S S S S S S S S S S S S S S S
|---------------------------------------|-----------------------------------|
|---------------------------------------|-----------------------------------|
|---------------------------------------|-----------------------------------|
|---7---7-----7-----7---3-----3---3---3-|-----5---5---5---5---3---3---3---3-|
|-5---5----5----5-----1---1-----1---1---|--3----3---3---3---1---1---1---1---|
|---------------------------------------|-----------------------------------|


  D                   Bb                    C
   |--3---|            |--3---|
  +Q      E   E   S S +Q      E   E   S S   +W
|-----------------------------------------|-----------------------------------|
|-----------------5-6-(6)-----8---6---5---|-----------------------------------|
|-(7)---------7-------------------------5-|-(5)-------------------------------|
|---------7-------------------------------|-----------------------------------|
|-----------------------------------------|-----------------------------------|
|-----------------------------------------|-----------------------------------|
|
|  S  S S   S S S S S  S  S S   S S S S S    S  S S S S S S S S S S S S S S S
|-----------------------------------------|-----------------------------------|
|-----------------------------------------|-----------------------------------|
|-----------------------------------------|-----------------------------------|
|-----7-----7---7---7-----3-----3---3---3-|-----5---5---5---5---5---5---5---5-|
|--5----5-----5---5----1----1-----1---1---|--3----3---3---3---3---3---3---3---|
|-----------------------------------------|-----------------------------------|


  H.=H
  D               Bb
  S S S S S S S S S S S S S S S S
|---------------------------------|
|---------------------------------|
|---------------------------------|
|---7---7---7---7---3---3---3---3-|
|-5---5---5---5---1---1---1---1---|
|---------------------------------|


  C               F       G         D
  S S S S S S S S S S S S S S S S   S S S S H.
|---------------------------------|---------------*|
|---------------------------------|---------------*|
|-------------------5---5---7---7-|---------------*|
|---5---5---5---5-3---3---5---5---|---7---7-------*|
|-3---3---3---3-------------------|-5---5---5-----*|
|---------------------------------|---------------*|




Тональность:

Это должно быть в ТОП-листе! - Топ-лист композиций



Назад
Рекомендуем посмотреть другие песни исполнителя «Iron Maiden»:

  • Комменты Fb ()
  • Комменты ВК



Добавить в Избранное Браузера
Сохранить здесь Очистить


x

0


+
-

+
-

-

Авторизация





Зарегистрироваться

M

Дата и время

  • 05:51:21
     

Социальные ссылки


Наши приложения

  • Muzbank App Play Market
  • Muzbank Amazon App