MUZBANK


МУЗЫКАЛЬНО-ИНФОРМАЦИОННЫЙ БАНК





IIron Maiden • Flight Of Icarus (аккорды и текст - chords & lyrics)


398

Print

Видео «Flight Of Icarus (Iron Maiden)»

Видео клипы к песне подбираются автоматически сайтом youtube. Возможны некоторые несоответствия клипов песне.

↑ Спрятать рекламу ↑





As the sun breaks above the ground
An old man stands on the hill
As the ground warms to the first rays of light
A birdsong shatters the still

His eyes are ablaze
See the madman in his gaze

Fly on your way like an eagle
Fly as high as the sun
On your wings like an eagle
Fly and touch the sun

Now the crowd breaks and a young boy appears
Look the old man in his eyes
As he spreads his wings and shouts at the crowd
In the name of God my father I fly

His eyes seem so glazed
As he flies on the wings of a dream
Now he knows his father betrayed
Now his wings burn to ashes to ashes his grave

Fly on your way like an eagle
Fly as high as the sun
On your wings like an eagle
Fly and touch the sun


 
 
 /Tab explanations/
 -----------------------------------------------------------------------------
 >   Accent               |  /   Slide up      |  w   whole note
 .   Staccatto            |     Slide down    |  h   half note   
 h   Hammer-on/ pull off  |  :   Repeat        |  q   quarter    Harmonic             |  ~   slight bend   |  e   eigth note
 []  tied notes           |  +   dotted note   |  s   sixteenth note           
 -----------------------------------------------------------------------------
 
 
 Flight of Icarus ( Smith/Dickinson )
  ( From the album "Piece of Mind" )     
  
 /Bass tab/
 
   q   q   e  s s e  s s e  s s e  s s e  s s e  s s e  s s e  s s e  s s e
 -->--->----------------------------------------------------------------------
 --7---2----------------------------------------------------------------------
 -----------------------------------------------------------------------------
 ----------2--2-2-2--2-2-2--2-2-2--2-2-2--2-2-2--2-2-2--2-2-2--2-2-2--2-2-2---
 
  s s e  s s e  s s e  s s e  s s   e e  s s e   e  s s e  s s e  s s e  s s e
 -----------------------------------------------------------------------------
 ------------------------------------------------4--4-4-4--4-4----------------
 -----------------------------------.-.---------------------------------------
 -2-2-2--2-2-2--2-2-2--2-2-2--2-2---2-2--2-2-2-----------------2--2-2-2--2-2-2
                                                 "As the Sun breaks..."
 
  s s e  s s e  s s e  s s e  s s e  s s e  s s e  s s e  s s e  s s e  s s
 -----------------------------------------------------------------------------
 -----------------------------------------------------------------------------
 -----------------------------------------------------------------------------
 -2-2-2--2-2-2--2-2-2--2-2-2--2-2-2--2-2-2--2-2-2--2-2-2--2-2-2--2-2-2--2-2---
 
 
  e e  q  e  s s e  s s e  s s e  s s e  s s e  s s  e e  q  e  s s e  s s e
 -----------------------------------------------------------------------------
 -----------------------------------------------------------------------------
 -.-.-->-->------------------------------------------.-.-->-->----------------
 -2-2--5--0--0-0-0--0-0-0--0-0-0--0-0-0--0-0-0--0-0--0-0--5--2--2-2-2--2-2-2--
 
  s s e  s s e  s s  e e  s s e   q  q+  e  s s e   q  q+  e  s s e  q  q+
 -----------------------------------------------------------------------------
 ------------------------------------4-----------------6----------------7-----
 --------------------.-.------------------------------------------------------
 -2-2-2--2-2-2--2-2--2-2--2-2-2---2------2--2-2-2---4------4--4-4-4--5--------
 
  e  s s e    q  q    e  e   s s e   q q+  e  s s e   q q  e e  e s s   s s e+
 ---------------------.--.--------------------------------------9-------------
 ----------------9---11-11--11-9-7-----4---------------------9----9-7--------
 -------------------------------------------------------7--7------------5-5-5-
 --5--5-5-5---7----------------------2-----2--2-2-2---0-----------------------
 
  s s s e+ s s s e+ s s s e    q q+  e  s s e   q q  e  e   e  e    s s e+ s s
 ----------------------------------------------------------14-----------------
 --------------------------------4-------------------9-11-----14-------------
 -5-5-5-5--5-5-5-5--5-7-7-7----------------------7-----------------5-5-5--5-5
 ------------------------------2-----2--2-2-2---0-----------------------------
 
  s e+ s s s e+ s s s e    e  s s e  s s e  s s e  s s e  s s e  s s e  s s e
 -----------------------------------------------------------------------------
 -----------------------------------------------------------------------------
 -5-5--5-5-5-5--5-7-7-7------------------------------------------------------
 --------------------------2--2-2-2--2-2-2--2-2-2--2-2-2--2-2-2--2-2-2--2-2-2-
 
  s s e  s s e  s s e  s s e  s s e  s s e  s s  e e  s s e  e  s s e  s s s s
 -----------------------------------------------------------------------------
 ------------------------------------------------------------4----------------
 ------------------------------------------------.-.--------------------------
 -2-2-2--2-2-2--2-2-2--2-2-2--2-2-2--2-2-2--2-2--2-2--2-2-2-----2-2-2--2-2-2-2
 
  s s e  s s e  s s e  s s s s  s s e  s s e  s s s s  s s e  s s e  s s  e e
 -----------------------------------------------------------------------------
 -----------------------------------------------------------------------------
 -------------------------------------------------------------------------.-.-
 -2-2-2--2-2-2--2-2-2--2-2-2-2--2-2-2--2-2-2--2-2-2-2--2-2-2--2-2-2--2-2--2-2-
 
   q  e  s s e  s s s s  s s e  s s e  s s e  s s  e e  q  e  s s e  s s e
 -----------------------------------------------------------------------------
 -----------------------------------------------------------------------------
 -->-->--------------------------------------------.-.-->-->------------------
 --5--0--0-0-0--0-0-0-0--0-0-0--0-0-0--0-0-0--0-0--0-0--5--2--2-2-2--2-2-2----
 
  s s e  s s e  s s  e e  s s e     q  q+  e  s s e   q  q+  e  s s e  q  q+
 -------------------------------||--------------------------------------------
 -------------------------------||.----4-----------------6----------------7---
 --------------------.-.--------||.-------------------------------------------
 -2-2-2--2-2-2--2-2--2-2--2-2-2-||--2------2--2-2-2---4------4--4-4-4--5------
 
  e  s s e  q  q    e  e   s s e      q q+  e  s s e   q q  e e  e s s   s s e+
 ------------------.--.-----------||-----------------------------9------------
 -------------9---11-11--11-9-7--.||----4---------------------9----9-7-------
 --------------------------------.||---------------------7--7------------5-5-5
 -5--5-5-5--7---------------------||--2-----2--2-2-2---0----------------------
 
  s s s e+ s s s e+ s s s e    q q+  e  s s e   q q  e  e   e  e    s s e+ s s
 ----------------------------------------------------------14-----------------
 --------------------------------4-------------------9-11-----14-------------
 -5-5-5-5--5-5-5-5--5-7-7-7----------------------7-----------------5-5-5--5-5
 ------------------------------2-----2--2-2-2---0-----------------------------
                                   
 
  s e+ s s s e+ s s s e    e  s s e  s s e  s s e  s s e  s s  e e  q q  e  s
 -----------------------------------------------------------------------------
 -----------------------------------------------------------------------------
 -5-5--5-5-5-5--5-9-7-7---------------------------------------.-.-->->-------
 --------------------------2--2-2-2--2-2-2--2-2-2--2-2-2--2-2--2-2--5-0--2--2-
                           Guitar Solo
 
  s e  s s e  s s e  s s e  s s  e e  q q  e  s s e  s s e  s s e  s s e  s s
 -----------------------------------------------------------------------------
 -----------------------------------------------------------------------------
 --------------------------------.-.-->->-------------------------------------
 -2-2--2-2-2--2-2-2--2-2-2--2-2--2-2--5-0--0--0-0-0--0-0-0--0-0-0--0-0-0--0-0-
 
  e e  q q  e  s s e  s s e  s s e  s s e  s s  e e  s s e     q  q+  e  s s e
 ----------------------------------------------------------||-----------------
 ----------------------------------------------------------||.----4-----------
 -.-.-->->--------------------------------------.-.--------||.----------------
 -0-0--5-0--2--2-2-2--2-2-2--2-2-2--2-2-2--2-2--2-2--2-2-2-||--2------2--2-2-2
 
  q q+  e  s s e  q  q+  e  s s e  q  q    e  e   s s e         q q+  e  s s e
 ------------------------------------------.--.-----------||------------------
 ---6----------------7----------------9---11-11--11-9-7--.||.-----4-----------
 --------------------------------------------------------.||.-----------------
 -4-----4--4-4-4--5------5--5-5-5--7----------------------||----2-----2--2-2-2
                                                   end solo
  
  
                                                         ---------------------
                                                         1.
  q q  e e  e s s   s s e+  s s s e+ s s s e+ s s s e    q q+  e  s s e   q q
 -----------9-----------------------------------------------------------------
 --------9----9-7-----------------------------------------4------------------
 ---7--7------------5-5-5---5-5-5-5--5-5-5-5--5-7-7-7----------------------7-
 -0------------------------------------------------------2-----2--2-2-2---0---
 
 
 ----------------------------------------------------   ----------------------
                                                     |  2.
  e  e   e  e    s s e+ s s  s e+ s s s e+ s s s e         q q+  e  s s e  q q
 -------14-------------------------------------------||-----------------------
 ---11-----14--------------------------------------.||------4----------------
 -9--------------5-5-5--5-5--5-5--5-5-5-5--5-7-7-7-.||----------------------7
 ----------------------------------------------------||----2-----2--2-2-2--0--
 
  e  e   e  e    s s e+ s s  s e+ s s s e+ s s s e    e e+    q q+  e  s s e
 -------14--------------------------------------------------------------------
 ---11-----14--------------------------------------------------4-------------
 -9--------------5-5-5--5-5--5-5--5-5-5-5--5-7-7-7---9-9--------------------
 -------------------------------------------------------------2-----2--2-2-2--
 
  q q+  e  s s e  q  q+  e  s s e  q  q    e  q   e                           
                                              .         q q+  e  s s e  q  q+
 --------------------------------------------11--11--------------------------
 ---6----------------7----------------9---11--------------4----------------6--
 -----------------------------------------------------------------------------
 -4-----4--4-4-4--5------5--5-5-5--7--------------------2-----2--2-2-2--4-----
                                                                
  e  s s e  q  q+  e  s s e  q  q    e  e   s s e   e  s s e  e  s e  s e  e
 
 ------------------------------------.--.-------------------------------------
 --------------7----------------9---11-11--11-9-7------4-4-4-----4-4--4-4-----
 -----------------------------------------------------------------------------
 -4--4-4-4--5------5--5-5-5--7----------------------2---------2------------2--
 
   e  s s e  e  s e  s e  e   e  s s e  e  s e  s e  e   e  s s e  e   s  e
 -------------------------------------------------------------------------.---
 -----6-6-6-----6-6--6-6---------7-7-7-----7-7--7-7---------9-9-9-----11-11---
 -----------------------------------------------------------------------------
 --4---------4------------4---5---------5------------5---7---------7----------
 
   s  s s e    e  s s e  e  s e  s e  e  e  s s e  e  s e  s e  e   e  s s e
 -----------------------------------------------------------------------------
 -11-11-9-7------4-4-4-----4-4--4-4--------6-6-6-----6-6--6-6---------7-7-7--
 -----------------------------------------------------------------------------
 --------------2---------2------------2--4---------4------------4---5---------
 
  e  s s s s s s s s    [w w w]   q     s  s  s  s  s s  e   s s  e  s s  e
 -----------------------------------------------------------------------------
 ----7-7-7-7-7-7-6-4---------------------------------------------------------
 --------------------------------------11-11-11-11-11-9-----11-9----11-9------
 -5----------------------2--------2---------------------11-------11------11---
                                        out of time
 
 
  s s s s q  s s s s s s s s s s s s s s s s s s s s s s s h   q  q  e
 ---------------------------------------------------------------------------||
 --------------------------------------------------------------5--2--4-----||
 ---------------------------------------------------------------------------||
 -9-7-5-4-2--2-2-2-2-2-2-2-2-2-2-2-2-2-2-2-2-2-2-2-2-2-2-2-2----------------||
 
 
 note
 


/Guitar tab/



                                 Introduction

e|---5-----0-----------------------------------------------------------------|
B|---5-----0-----------------------------------------------------------------|
G|---6-----1-----------------------------------------------------------------|
D|---7-----2-----4--x--x--4--x--x--4--x--x--4--4--4--4--4--x--x--------------|
A|---7-----2-----4--x--x--4--x--x--4--x--x--4--4--4--4--4--x--x--------------|
E|---5-----0-----2--x--x--2--x--x--2--x--x--2--2--2--2--2--x--x--------------|

e|---------------------------------------------------------------------------|
B|---------------------------------------------------------------------------|
G|---------------------------------------------------------------------------|
D|----4--x--x--4--x--x--4--x--x--4--4--4--4--4--x--x-------------------------|
A|----4--x--x--4--x--x--4--x--x--4--4--4--4--4--x--x-------------------------|
E|----2--x--x--2--x--x--2--x--x--2--2--2--2--2--x--x-------------------------|

e|---------------------------------------------------------------------------|
B|---------------------------------------------------------------------------|
G|---------------------------------------------------------------------------|
D|----4--x--x--4--x--x--4--x--x--4--4--4--4--4--x--x-------------------------|
A|----4--x--x--4--x--x--4--x--x--4--4--4--4--4--x--x-------------------------|
E|----2--x--x--2--x--x--2--x--x--2--2--2--2--2--x--x-------------------------|

e|------------------------------------2--------------------------------------|
B|------------------------------------2--------------------------------------|
G|------------------------------------2--------------------------------------|
D|----4--x--x--4--x--x--4--x--x-------4--------------------------------------|
A|----4--x--x--4--x--x--4--x--x-------4--------------------------------------|
E|----2--x--x--2--x--x--2--x--x-------2--------------------------------------|



                                  Verse
 
e|---5-----0-----5-----2-----------------------------------------------------|
B|---5-----0-----5-----2-----------------------------------------------------|
G|---6-----1-----6-----2-----------------------------------------------------|
D|---7-----2-----7-----4-----------------------------------------------------|
A|---7-----2-----7-----4-----------------------------------------------------|
E|---5-----0-----5-----2-----------------------------------------------------|



                         Prechorus (Different 1st Time)

e|---------------------------------------------------------------------------|
B|---------------------------------------------------------------------------|
G|---------------------------------------------------------------------------|
D|---4--4--x--4--4-----------------2--2--x--2--2--4--4-/-6--6----------------|
A|---4--4--x--4--4--7--7--x--7--7--0--0--x--0--0--2--2-/-4--4----------------|
E|---2--2--x--2--2--4--4--x--4--4--------------------------------------------|

                                    Chorus

e|------2-----------0--------------------------------------------------------|
B|------2-----------0--------------------------------------------------------|
G|------2--------1--1--1-----------------------------------------------------|
D|---4--4--4-----2--2--2-----7---------------7---------------7---------------|
A|---4--4--4-----2--2--2-----5-\-4-/-5-------5-\-4-/-5-------5-\-4-/-5-------|
E|---2--2--2-----0--0--0-----------------------------------------------------|

e|---------------------------------------------------------------------------|
B|---------------------------------------------------------------------------|
G|---------------------------------------------------------------------------|
D|---7-------9---------------------------------------------------------------|
A|---5-\-4-/-7---------------------------------------------------------------|
E|---------------------------------------------------------------------------|

e|------2-----------0--------------------------------------------------------|
B|------2-----------0--------------------------------------------------------|
G|------2--------1--1--1-----------------------------------------------------|
D|---4--4--4-----2--2--2-----7---------------7---------------7---------------|
A|---4--4--4-----2--2--2-----5-\-4-/-5-------5-\-4-/-5-------5-\-4-/-5-------|
E|---2--2--2-----0--0--0-----------------------------------------------------|

e|---------------------------------------------------------------------------|
B|---------------------------------------------------------------------------|
G|---------------------------------------------------------------------------|
D|---7-------9-----4--x--x--4--x--x--4--x--x--4--4--4--4--4--x--x------------|
A|---5-\-4-/-7-----4--x--x--4--x--x--4--x--x--4--4--4--4--4--x--x------------|
E|-----------------2--x--x--2--x--x--2--x--x--2--2--2--2--2--x--x------------|

e|---------------------------------------------------------------------------|
B|---------------------------------------------------------------------------|
G|---------------------------------------------------------------------------|
D|----4--x--x--4--x--x--4--x--x--4--4--4--4--4--x--x-------------------------|
A|----4--x--x--4--x--x--4--x--x--4--4--4--4--4--x--x-------------------------|
E|----2--x--x--2--x--x--2--x--x--2--2--2--2--2--x--x-------------------------|

e|---------------------------------------------------------------------------|
B|---------------------------------------------------------------------------|
G|---------------------------------------------------------------------------|
D|----4--x--x--4--x--x--4--x--x--4--4--4--4--4--x--x-------------------------|
A|----4--x--x--4--x--x--4--x--x--4--4--4--4--4--x--x-------------------------|
E|----2--x--x--2--x--x--2--x--x--2--2--2--2--2--x--x-------------------------|

e|--------------------------------------2-----2------------------------------|
B|--------------------------------------2--------2-----5---------------------|
G|--------------------------------------2-----------2------------------------|
D|----4--x--x--4--x--x--4--x--x---------4------------------------------------|
A|----4--x--x--4--x--x--4--x--x---------4------------------------------------|
E|----2--x--x--2--x--x--2--x--x---------2------------------------------------|



                                On To Verse Again

e|---5-----0-----5-----2-----------------------------------------------------|
B|---5-----0-----5-----2-----------------------------------------------------|
G|---6-----1-----6-----2-----------------------------------------------------|
D|---7-----2-----7-----4-----------------------------------------------------|
A|---7-----2-----7-----4-----------------------------------------------------|
E|---5-----0-----5-----2-----------------------------------------------------|

   
                    
                         Prechorus (Different From The First)

e|---------------------------------------------------------------------------|
B|---------------------------------------------------------------------------|
G|---------------------------------------------------------------------------|
D|---4--4--x--4--4-----------------2--2--x--2--2--4--4--x--4--2--------------|
A|---4--4--x--4--4--7--7--x--7--7--0--0--x--0--0--2--2--x--2--0--------------|
E|---2--2--x--2--2--4--4--x--4--4--------------------------------------------|

e|---------------------------------------------------------------------------|
B|---------------------------------------------------------------------------|
G|---------------------------------------------------------------------------|
D|---4--4--x--4--4-----------------2--2--x--2--2--4--4-/-6--6----------------|
A|---4--4--x--4--4--7--7--x--7--7--0--0--x--0--0--2--2-/-4--4----------------|
E|---2--2--x--2--2--4--4--x--4--4--------------------------------------------|


                               
                                  Chorus Again

e|------2-----------0--------------------------------------------------------|
B|------2-----------0--------------------------------------------------------|
G|------2--------1--1--1-----------------------------------------------------|
D|---4--4--4-----2--2--2-----7---------------7---------------7---------------|
A|---4--4--4-----2--2--2-----5-\-4-/-5-------5-\-4-/-5-------5-\-4-/-5-------|
E|---2--2--2-----0--0--0-----------------------------------------------------|

e|---------------------------------------------------------------------------|
B|---------------------------------------------------------------------------|
G|---------------------------------------------------------------------------|
D|---7-------9---------------------------------------------------------------|
A|---5-\-4-/-7---------------------------------------------------------------|
E|---------------------------------------------------------------------------|

e|------2-----------0--------------------------------------------------------|
B|------2-----------0--------------------------------------------------------|
G|------2--------1--1--1-----------------------------------------------------|
D|---4--4--4-----2--2--2-----7---------------7---------------7---------------|
A|---4--4--4-----2--2--2-----5-\-4-/-5-------5-\-4-/-5-------5-\-4-/-5-------|
E|---2--2--2-----0--0--0-----------------------------------------------------|

e|---------------------------------------------------------------------------|
B|---------------------------------------------------------------------------|
G|---------------------------------------------------------------------------|
D|---7-------9-----4--x--x--4--x--x--4--x--x--4--4--4--4--4--x--x------------|
A|---5-\-4-/-7-----4--x--x--4--x--x--4--x--x--4--4--4--4--4--x--x------------|
E|-----------------2--x--x--2--x--x--2--x--x--2--2--2--2--2--x--x------------|

e|---------------------------------------------------------------------------|
B|---------------------------------------------------------------------------|
G|---------------------------------------------------------------------------|
D|----4--x--x--4--x--x--4--x--x--4--4--4--4--4--x--x-------------------------|
A|----4--x--x--4--x--x--4--x--x--4--4--4--4--4--x--x-------------------------|
E|----2--x--x--2--x--x--2--x--x--2--2--2--2--2--x--x-------------------------|

e|---------------------------------------------------------------------------|
B|---------------------------------------------------------------------------|
G|---------------------------------------------------------------------------|
D|----4--x--x--4--x--x--4--x--x--4--4--4--4--4--x--x-------------------------|
A|----4--x--x--4--x--x--4--x--x--4--4--4--4--4--x--x-------------------------|
E|----2--x--x--2--x--x--2--x--x--2--2--2--2--2--x--x-------------------------|

e|--------------------------------------2------------------------------------|
B|--------------------------------------2------------------------------------|
G|--------------------------------------2------------------------------------|
D|----4--x--x--4--x--x--4--x--x---------4------------------------------------|
A|----4--x--x--4--x--x--4--x--x---------4------------------------------------|
E|----2--x--x--2--x--x--2--x--x---------2------------------------------------|

                    

                                      Solo 1 
              (The Pre-Chorus and Chorus is just played underneath this)


  1:54                         1:58
e|-----------------------------------------------------------------------------------------|
h|------------------------------------------------------14h15r14h15-17---------------------|
g|--4b---4-2------------------------------14r13-13h14h16-----------------------------------|
D|-----------4-3-2------------------14-16--------------------------------------------------|
A|-----------------4-2---------------------------------------------------------------------|
E|---------------------5-2-2---------------------------------------------------------------|


                                            2:01
e|-14h17r14--14h17r14--14h17r14--14h17r14---14b--14-16-17-19-21-19--21-19------------------|
h|-----------------------------------------------------------------------------------------|
g|-----------------------------------------------------------------------------------------|
D|-----------------------------------------------------------------------------------------|
A|-----------------------------------------------------------------------------------------|
E|-----------------------------------------------------------------------------------------|


   2:07                                    2:08
e|-17h19r17--17h19r17--17h19r17--17h19r17--16h17r16--16h17r16--16h17r16--16h17r16----------|
h|-----------------------------------------------------------------------------------------|
g|-----------------------------------------------------------------------------------------|
D|-----------------------------------------------------------------------------------------|
A|-----------------------------------------------------------------------------------------|
E|-----------------------------------------------------------------------------------------|



                                           2:09
e|-14h17r14--14h17r14--14h17r14--14h17r14--------------------------------------------------|
h|-----------------------------------------14h17r14--14h17r14--14h17r14--14h17r14----------|
g|-----------------------------------------------------------------------------------------|
D|-----------------------------------------------------------------------------------------|
A|-----------------------------------------------------------------------------------------|
E|-----------------------------------------------------------------------------------------|



                                         2:10
e|-----------------------------------------------------------------------------------------|
h|---------------------------------------14-----------------------------14---14h16b-14-----|
g|14h16r14--14h16r14--14h16r14--14h16r14----16-14-----------------------14---14h16b-14-----|
D|------------------------------------------------16--16-14--------14-16---16-----------16-|
A|---------------------------------------------------------16-14-16------------------------|
E|-----------------------------------------------------------------------------------------|



  2:12
e|-19-17----14--19-17--17-17r14h17r14h17---------------------------------------------------|
h|-------14-----------------------------14h17r14h17----------------------------------------|
g|--------------------------------------------------14h16r14h16---14h16r14h16--------------|
D|-------------------------------------------------------------16------------14h16r14h16---|
A|---------------------------------------------------------------------------------------14|
E|-----------------------------------------------------------------------------------------|

   2:20                  2:24                      2:26
e|-----------------------14-17-14------------------14h17r14--14----------------------------|
h|-------14---14---14------------17-14---------------------17--17-14-----------------------|
g|s11-11---11---11---11---------------17-16-14----------------------16-14------------------|
D|---------------------------------------------16------------------------16-14-------------|
A|----------------------------------------------------------------------------16-15-14-----|
E|------------------------------------------------------------------------------------17-14|





                       Chorus Repeats A Few Times More I Think

e|------2-----------0--------------------------------------------------------|
B|------2-----------0--------------------------------------------------------|
G|------2--------1--1--1-----------------------------------------------------|
D|---4--4--4-----2--2--2-----7---------------7---------------7---------------|
A|---4--4--4-----2--2--2-----5-\-4-/-5-------5-\-4-/-5-------5-\-4-/-5-------|
E|---2--2--2-----0--0--0-----------------------------------------------------|

e|---------------------------------------------------------------------------|
B|---------------------------------------------------------------------------|
G|---------------------------------------------------------------------------|
D|---7-------9---------------------------------------------------------------|
A|---5-\-4-/-7---------------------------------------------------------------|
E|---------------------------------------------------------------------------|

e|------2-----------0--------------------------------------------------------|
B|------2-----------0--------------------------------------------------------|
G|------2--------1--1--1-----------------------------------------------------|
D|---4--4--4-----2--2--2-----7---------------7---------------7---------------|
A|---4--4--4-----2--2--2-----5-\-4-/-5-------5-\-4-/-5-------5-\-4-/-5-------|
E|---2--2--2-----0--0--0-----------------------------------------------------|

e|---------------------------------------------------------------------------|
B|---------------------------------------------------------------------------|
G|---------------------------------------------------------------------------|
D|---7-------9---------------------------------------------------------------|
A|---5-\-4-/-7---------------------------------------------------------------|
E|---------------------------------------------------------------------------|
                                  
                                    

                                      Solo 2 (Outro)


   3:02                                       3:10           
e|----------------------------------------------9--9---(-9-7------9--9--)x(3 times)--------|
h|-(-7--7---10-9-7---7--7)x(3 times)---10-9-7----------(-----10-7-------)------------------|
g|-(---------------9-----)--------------------9--------------------------------------------|
D|-----------------------------------------------------------------------------------------|
A|-----------------------------------------------------------------------------------------|
E|-----------------------------------------------------------------------------------------|

   3:19              3:24                                     3:27                     3:33
e|--9-9-9-9-9-9-9-9-7h9r7h9-----------------------------------9h12r9h12r9h12r9h12r9h12-9-14|
h|--------------------------7h10r7h10-----------------------7------------------------------|
g|------------------------------------7h9r7h9-------7h9r7h9--------------------------------|
D|-------------------------------------------7h9r7h9---------------------------------------|
A|-----------------------------------------------------------------------------------------|
E|-----------------------------------------------------------------------------------------|



                                    Ending

e|---5-----0-----------------------------------------------------------------|
B|---5-----0-----------------------------------------------------------------|
G|---6-----1-----------------------------------------------------------------|
D|---7-----2-----4-----------------------------------------------------------|
A|---7-----2-----4-----------------------------------------------------------|
E|---5-----0-----2-----------------------------------------------------------|

Тональность:

Это должно быть в ТОП-листе! - Топ-лист композиций



Назад
Рекомендуем посмотреть другие песни исполнителя «Iron Maiden»:

  • Комменты Fb ()
  • Комменты ВК



Добавить в Избранное Браузера
Сохранить здесь Очистить


x

0


+
-

+
-

-

Авторизация





Зарегистрироваться

M

Дата и время

  • 23:19:39
     

Социальные ссылки


Наши приложения

  • Muzbank App Play Market
  • Muzbank Amazon App