MUZBANK


МУЗЫКАЛЬНО-ИНФОРМАЦИОННЫЙ БАНК





IIron Maiden • Ive Got The Fire (аккорды и текст - chords & lyrics)


315

Print

Видео «Ive Got The Fire (Iron Maiden)»

Видео клипы к песне подбираются автоматически сайтом youtube. Возможны некоторые несоответствия клипов песне.

↑ Спрятать рекламу ↑





 


Written by Ronnie Montrose.
Performed by IRON MAIDEN.
Taken from the single FLIGHT OF ICARUS.

Transcribed by Oskar "The Seventh Son" Wigren.
E-mail me at wigren@skelleftea.mail.telia.com

NOTE:
Original by MONTROSE, on album Paper Money.

Riff 1:
E---------------------------------------------------------|
B---------------------------------------------------------|
G--------3-----------3---5-3------------------------------|
D----3-5-----5-3-5-5---5-----5-4-3-------------3---5------|
A--5-------------------------------5-4-3-1-----1---3---5--|
E------------------------------------------3-----------3--|

Riff 2:
E-----------------------------------|-----------------------------------|
B-----------------------------------|-----------------------------------|
G-----------------------------------|-----------------------------------|
D-----------------------------------|-----------------------------------|
A------------------------5----------|------------------------5----------|
E--3-3-3-3-3-3-3-3-3-3-3-3---0-1-2--|--3-3-3-3-3-3-3-3-3-3-3-3---0-1-2--|

Verse:
1.If you 

Тональность:

Это должно быть в ТОП-листе! - Топ-лист композиций



Назад
Рекомендуем посмотреть другие песни исполнителя «Iron Maiden»:

  • Комменты Fb ()
  • Комменты ВК



Добавить в Избранное Браузера
Сохранить здесь Очистить


x

0


+
-

+
-

-

Авторизация





Зарегистрироваться

M

Дата и время

  • 05:04:35
     

Социальные ссылки


Наши приложения

  • Muzbank App Play Market
  • Muzbank Amazon App