MUZBANK


МУЗЫКАЛЬНО-ИНФОРМАЦИОННЫЙ БАНК





IIron Maiden • Look For The Truth (аккорды и текст - chords & lyrics)


394

Print

Видео «Look For The Truth (Iron Maiden)»

Видео клипы к песне подбираются автоматически сайтом youtube. Возможны некоторые несоответствия клипов песне.

↑ Спрятать рекламу ↑





 


Iron Maiden - Look for the Truth
Album: X-Factor
By Felipe Cine

Clean Guitar (intro) (it can be played w/ some kinda chorus)
e|---------------------------------------------------------3--------------|
B|-----------------------------------------------------------3------------|
G|---------0---------------0---------------0-------------0-----0----------|
D|-----2-------2-------2-------2-------2-------2-------0---------0--------|
A|---2---2---2---2---2---2---2---2---2---2---2---0---2--------------------|
E|-0---------------0---------------0---------------3----------------------|
 |
e|-------3-2--------------------------------------------------------------|
B|-----3-----3-------------3---------------0---------------0--------------|
G|---2---------2-------0-------0-------5-------5-------7-------7----------|
D|-0-------------0---4---4---4---4---5---5---5-------7---7---7---0--------|
A|-----------------2---------------3-------------3/5----------------------|
E|------------------------------------------------------------------------|
 |
e|---------0-------------------------------0---------------3--------------|
B|-----------0-------------9-----------------0---------------3------------|
G|-----9-------9-------9-------9-0-------0---------------0-----0----------|
D|---9---9-------9---9---9---9---0-----2-------2-0-----0---------0--------|
A|-7---------------7-----------------2---------------2--------------------|
E|---------------------------------0---------------3----------------------|
 |
e|-------3-2-------------------------------0---------------0--------------|
B|-----3-----3-------------3-------------0---0-----------0---0------------|
G|---2---------2-0-----0-------0-------5-------5-------7-------7----------|
D|-0-----------------4---4---4---4---5-----------5---7-----------7--------|
A|-----------------2---------------3---------------5----------------------|
E|------------------------------------------------------------------------|
 |
e|---------0-------------------------------0---------------3--------------|
B|-----------0-------------0-----------------0---------------3------------|
G|-----9-------9-------9-------9---------0---------------0-----0----------|
D|---9---9-------9---9---9---9---0-----2-------2-0-----0---------0--------|
A|-7---------------7-----------------2---------------2--------------------|
E|---------------------------------0---------------3----------------------|
 |
e|-------3-2--------------------------------------------------------------|
B|-----3-----3-------------3---------------0---------------0--------------|
G|---2---------2-------0-------0-------5-------5-------7-------7----------|
D|-0-------------0---4---4---4---4---5---5---5-------7---7---7---0--------|
A|-----------------2---------------3-------------3-5----------------------|
E|------------------------------------------------------------------------|
 |
e|---------0-------------------------------0---------------3--------------|
B|-----------0-------------9-----------------0---------------3------------|
G|-----9-------9-------9-------9-0-------0---------------0-----0----------|
D|---9---9-------9---9---9---9---0-----2-------2-0-----0---------0--------|
A|-7---------------7-----------------2---------------2--------------------|
E|---------------------------------0---------------3----------------------|
 |
e|-------3-2-------------------------------0---------------0--------------|
B|-----3-----3-------------3-------------0---0-----------0---0------------|
G|---2---------2-0-----0-------0-------5-------5-------7-------7----------|
D|-0-----------------4---4---4---4---5-----------5---7-----------7--------|
A|-----------------2---------------3---------------5----------------------|
E|------------------------------------------------------------------------|



e|---------0-------------------------------0---------------3--------------|
B|-----------0-------------0-----------------0---------------3------------|
G|-----9-------9-------9-------9---------0---------------0-----0----------|
D|---9---9-------9---9---9---9---0-----2-------2-0-----0---------0--------|
A|-7---------------7-----------------2---------------2--------------------|
E|---------------------------------0---------------3----------------------|
 |
e|-------3-2--------------------------------------------------------------|
B|-----3-----3-------------3---------------0---------------0--------------|
G|---2---------2-------0-------0-------5-------5-------7-------7----------|
D|-0-------------0---4---4---4---4---5---5---5-------7---7---7---0--------|
A|-----------------2---------------3-------------3-5----------------------|
E|------------------------------------------------------------------------|
 |
e|---------0-------------------------------0---------------3--------------|
B|-----------0-------------9-----------------0---------------3------------|
G|-----9-------9-------9-------9-0-------0---------------0-----0----------|
D|---9---9-------9---9---9---9---0-----2-------2-0-----0---------0--------|
A|-7---------------7-----------------2---------------2--------------------|
E|---------------------------------0---------------3----------------------|
 |
e|-------3-2-------------------------------0---------------0--------------|
B|-----3-----3-------------3-----------------0---------------0------------|
G|---2---------2-------0-------0-------5-------5-------7-------7----------|
D|-0-------------0---4---4---4---4---5---5-------5---7---7-------7--------|
A|-----------------2---------------3---------------5----------------------|
E|------------------------------------------------------------------------|
 |
e|------------------------------------------------------------------------|
B|------------------------------------------------------------------------|
G|------------------------------------------------------------------------|
D|-9-9-9-9-9-9-9-9--2-2-2-2-2-2-2-2---------------------------------------|
A|-7-7-7-7-7-7-7-7--2-2-2-2-2-2-2-2---------------------------------------|
E|------------------0-0-0-0-0-0-0-0---------------------------------------|

This is w/ dist. on
e|-----------3--2-----------------2---------------------------------------|
B|-----------3--3--------3--3-3---3---------------------------------------|
G|-----------0--2--------4--4-4---2---------------------------------------|
D|--2--2-2---0--0--------4--4-4---0--2------------------------------------|
A|--2--2-2---2-----------2--2-2------2------------------------------------|
E|--0--0-0---3-----------------------0------------------------------------|
Oh, oh oh oh, oh oh!    Oh, oh oh,Oh Oh!

Verse
e|-------------------------------------------------------------------------|
B|-------------------------------------------------------------------------|
G|---9-9-9-9------5-5-5-5------7-7-7-7---4-4--5-5------9-9-9-9-----5-5-5-5-|
D|-7-9-9-9-9----8-5-5-5-5----5-7-7-7-7---4-4--5-5----7-9-9-9-9-----5-5-5-5-|
A|-7-7-7-7-7----8-3-3-3-3----5-5-5-5-5---2-2--3-3----7-7-7-7-7---8-3-3-3-3-|
E|-------------------------------------------------------------------------|
 |  In the house, of my soul....
 |
e|-----------------------------------------------------|
B|-----------------------------------------------------|
G|---7-7-7-7---4-4-------------------------------------|  

Тональность:

Это должно быть в ТОП-листе! - Топ-лист композиций



Назад
Рекомендуем посмотреть другие песни исполнителя «Iron Maiden»:

  • Комменты Fb ()
  • Комменты ВК



Добавить в Избранное Браузера
Сохранить здесь Очистить


x

0


+
-

+
-

-

Авторизация





Зарегистрироваться

M

Дата и время

  • 16:48:57
     

Социальные ссылки


Наши приложения

  • Muzbank App Play Market
  • Muzbank Amazon App