MUZBANK


МУЗЫКАЛЬНО-ИНФОРМАЦИОННЫЙ БАНК





IIron Maiden • Speed Of Light (аккорды и текст - chords & lyrics)


787

Print

Видео «Speed Of Light (Iron Maiden)»

Видео клипы к песне подбираются автоматически сайтом youtube. Возможны некоторые несоответствия клипов песне.

↑ Спрятать рекламу ↑





Another time, another place
A hollow universe in space
I took a trip to see the sights
That will be black over a night
One way ticket now returned
My shootin′ stars are vastly burnt
On the edge that we can′t see
Let′s shot the moon, you and me
And that particular you′ll see
A just too lonesome galaxy

Shadows in the stars
We will not return
Humanity won′t save us
At the speed of light
Shadows in the stars
We will not return
Humanity won′t save us
We′re slippin′ through the night

I′ll say a mass for you and wave
Shootin′ plasma from my grave
Event horizon lost in space
Runnin′ in a human race
I don′t know where I don′t know why
But somehow back in time again
I′m on the edge you can′t see
Another take your love at night
A single party call on me
You won′t be trackin′ me by sight

Shadows in the stars
We will not return
Humanity won′t save us
At the speed of light
Shadows in the stars
We will not return
Humanity won′t save us
We′re slippin′ through the night

Shadows in the stars
We will not return
Humanity won′t save us
At the speed of light
Shadows in the stars
We will not return
Humanity won′t save us
At the speed of light

Shadows in the stars
We will not return
Humanity won′t save us
At the speed of light
Shadows in the stars
We will not return
Humanity won′t save us
At the speed of light



Album : 2015 - Book of Souls


Standard Tuning
Tempo = 175 bpm

 [Intro]
   H E E E E   +E  E E E E E E E   E E E E E E E E   +E  E E E E E E E
e|---------3-|-(3)---------------|-----------------|---------------------|
B|-----------|-----6-3-----------|-----------------|---------------------|
G|-----------|---------5-3-----3-|-5-6-5-3-5-3---5-|-(5)-6-5-3-5-3-------|
D|-----------|-------------5-3---|-------------3---|---------------5-3---|
A|-----------|-------------------|-----------------|-----------------3---|
E|-----------|-------------------|-----------------|-----------------1---|


 MAIN RIFF
   +H     Q  E E   +Q   E E Q.   E   +E  E E E E Q  E   +Q   E E Q.   E   +E  E E E E Q  E
e|---------------|-----------------|------------------|-----------------|---------------------|
B|---------------|-----------------|------------------|-----------------|---------------------|
G|---------------|-----------------|------------------|-----------------|---------------------|
D|-(3)-----------|-----------------|------------------|-----------------|---------------------|
A|-(3)-----------|------5-4-3----3-|-(3)-3-3---3-5----|------5-4-3----3-|-(3)-3-3---3-5-------|
E|-(1)---------3-|-(3)-------------|---------5------3-|-(3)-------------|---------5------0----|


 [Verse]
     +Q    E E E E E E   +Q    E E E E E E   +Q    E E E E E E   +Q    E E E E E E
e||--------------------|-------------------|-------------------|-------------------|
B||o-------------------|-------------------|-------------------|-------------------|
G||--------------------|-------------------|-------------------|-------------------|
D||--------2-2-2-0-----|-------2-2-2-0-----|-------2-2-2-0-----|-------3-3-3-0-----|
A||o---------------2---|---------------2---|---------------2---|---------------3---|
E||--(0)-------------0-|-(0)-------------0-|-(0)-------------1-|-(1)-------------3-|


   Q  E E Q.   E   +E  E E E E Q  E   +Q   E E Q.   E   +E  E E E E Q  E
e|---------------|------------------|-----------------|-------------------||
B|---------------|------------------|-----------------|------------------o||
G|---------------|------------------|-----------------|-------------------||
D|---------------|------------------|-----------------|-------------------||
A|----5-4-3----3-|-(3)-3-3---3-5----|------5-4-3----3-|-(3)-3-3---3-5----o||
E|-3-------------|---------5------3-|-(3)-------------|---------5------0--||


 [Pre-Chorus]
     Gtr I
     E  E  E  E  E  E  E    E    +E   E  E  E  E  E  E    E
e||---------------------------|-----------------------------|
B||o---13-13-13-11------------|-----------------------------|
G||----------------12------10-|-(10)----10-12---------------|
D||-------------------13------|------13-------13-10------10-|
A||o--------------------------|---------------------13------|
E||---------------------------|-----------------------------|
|
 |   Gtr II
 |      PM---------------------------------------------------
 |      E  E  E  E  E  E E  E         E  E  E  E  E  E E  E
e||---------------------------|-----------------------------|
B||o--------------------------|-----------------------------|
G||---------------------------|-----------------------------|
D||-----5--5--5--5--5--5-5--5-|-------5--5--5--5--5--5-5--5-|
A||o----3--3--3--3--3--3-3--3-|-------3--3--3--3--3--3-3--3-|
E||---------------------------|-----------------------------|


    +E   E  E  E  Q      E  E      E  E  E  E  H
e|----------------------------|-----------------------||
B|------13-13-11-13-----13-15-|---16-15-13----13-----o||
G|----------------------------|------------15---------||
D|-(10)-----------------------|-----------------------||
A|----------------------------|----------------------o||
E|----------------------------|-----------------------||
|
|-------------------------------------------------|
|       E  E  E  E E E  E  E   E  E  E  E  E  E E E
|----------------------------|-----------------------||
|----------------------------|----------------------o||
|----------------------------|-----------------------||
|-------5--5--5--5-5-5--5--5-|-5--5--5--5--5--5-5-5--||
|-------3--3--3--3-3-3--3--3-|-3--3--3--3--3--3-3-3-o||
|----------------------------|-----------------------||


     E  E  E  E  E  E  E  E    +E   E  E  E  E  E  E  E
e||-------------------------|---------------------------|
B||o---15-15-15-13----------|---------------------------|
G||----------------14----12-|-(12)----12-14-------------|
D||-------------------15----|------15-------15-12----12-|
A||o------------------------|---------------------15----|
E||-------------------------|---------------------------|
|
 |   Gtr II
 |   PM--------------------------------------------------
 |   E  E  E  E  E  E  E  E     E   E  E  E  E  E  E  E
e||-------------------------|---------------------------|
B||o------------------------|---------------------------|
G||-------------------------|---------------------------|
D||--7--7--7--7--7--7--7--7-|---7---7--7--7--7--7--7--7-|
A||o-5--5--5--5--5--5--5--5-|---5---5--5--5--5--5--5--5-|
E||-------------------------|---------------------------|


    +E   E  E  E  Q    E  E    E  E  E  E  H
e|--------------------------|------------------------||
B|------15-15-13-15---15-17-|-18-17-15----15--------o||
G|--------------------------|----------17------------||
D|-(12)---------------------|------------------------||
A|--------------------------|-----------------------o||
E|--------------------------|------------------------||
|
|-----------------------------------------------|
|   E   E  E  E  E E  E  E    E  E  E  E  E E E E
|--------------------------|------------------------||
|--------------------------|-----------------------o||
|--------------------------|------------------------||
|---7---7--7--7--7-7--7--7-|--7--7--7--7--7-7-7-7---||
|---5---5--5--5--5-5--5--5-|--5--5--5--5--5-5-5-5--o||
|--------------------------|------------------------||


 [Chorus]
   W          +W           W          +W           W          +W           W      E E E E EEEE
e|-3--------|-(3)--------|----------|------------|----------|------------|------|--------------------|
B|-3--------|-(3)--------|----------|------------|----------|------------|------|--------------------|
G|-0--------|-(0)--------|-3--------|-(3)--------|----------|------------|-5----|--------------------|
D|-0--------|-(0)--------|-3--------|-(3)--------|-3--------|-(3)--------|-5----|--------------------|
A|-2--------|-(2)--------|-1--------|-(1)--------|-3--------|-(3)--------|-3----|-3-4-3-1-3-1--------|
E|-3--------|-(3)--------|----------|------------|-1--------|-(1)--------|------|-------------1-3----|


 SOLO 1 (solos are not exact)
     ~~~~
     H.       S  S  E    E  E  E  H        E
e|--------------------|-------------------------|
B|-----------12h13p12-|----12-13-15b17----15b17-|
G|-/14----------------|-14----------------------|
D|--------------------|-------------------------|
A|--------------------|-------------------------|
E|--------------------|-------------------------|


                       |--3--|
   +E      E  E  E  E  S  S  S  E  E    +E   Q.      E.    E.    E
|------------------------------------|------15b17---15b17-15b17-15b17--|
|-(15)b17-15-13-12-13-12h13p12----12-|-(12)----------------------------|
|------------------------------14----|---------------------------------|
|------------------------------------|---------------------------------|
|------------------------------------|---------------------------------|
|------------------------------------|---------------------------------|


                       |--3--|                              |--3--|
   +E      E  E  E  E  S  S  S  E  E       +E   E  E  E  E  S  S  S  E  E
|-(15)b17-15-13-12-13-12h13p12----------|---------------------------------|
|------------------------------15-15b17-|-(15)-15-13-12-13-12h13p12-------|
|---------------------------------------|---------------------------14-12-|
|---------------------------------------|---------------------------------|
|---------------------------------------|---------------------------------|
|---------------------------------------|---------------------------------|


   |--3--|     |--3--|                 |--3--|
   Q  Q  Q  E  S  S  S  E  E    Q   E  S  S  S  E  E   E  E
|----------------------------|--------------------------------|
|-------12-13-12h13p12-------|-12--13-12h13p12----------------|
|----------------------14-12-|-----------------14-12-/16-14---|
|-12-14----------------------|--------------------------------|
|----------------------------|--------------------------------|
|----------------------------|--------------------------------|


         \1/  \1/
                                  |--3--|
   +Q    E    Q     Q   E    +E   S  S  S  E  E  E  E  E  E
|-------------------------|---------------------------------|
|----------------------15-|-(15)-13h15p13-12----------------|
|-(14)--14---14----12-----|------------------14-14S16-14-12-|
|-------------------------|---------------------------------|
|-------------------------|---------------------------------|
|-------------------------|---------------------------------|


    E  E  E  E  E  E  E  E       +H      +Q.    E
e|-------------------14-14b15-|-(14)----(14)---14b15-|
B|----13-12----12-13----------|----------------------|
G|-14-------14----------------|----------------------|
D|----------------------------|----------------------|
A|----------------------------|----------------------|
E|----------------------------|----------------------|


              |--3--|        |--3--|
   +E      E  E  E  E  E     E  E  E  E    E  E  E  Q.      E     E
|-(14)b15-14-12----12-------------------|-------12-15b17---------17-|
|---------------15----15b17-12-15-12----|-12-15------------20b22----|
|------------------------------------14-|---------------------------|
|---------------------------------------|---------------------------|
|---------------------------------------|---------------------------|
|---------------------------------------|---------------------------|


    E  E  S  S  E  E  E   E   E       +W
e|-19-20-19h20p19-17-----17--------|--------|
B|-------------------20------20b22-|-(20)---|
G|---------------------------------|--------|
D|---------------------------------|--------|
A|---------------------------------|--------|
E|---------------------------------|--------|


[Solo]
                                        |---3---| |-3--|
  H    Q  E  E        +Q       Q        E    E  E E E  E
|------------------|-------------------------7-10-9-7----|
|-----------10b12==|=(10)b12--10pb12===10b12----------10-|
|------------------|-------------------------------------|
|------------------|-------------------------------------|
|------------------|-------------------------------------|
|------------------|-------------------------------------|


                         ~
  |-3--| |---3---| |-3-|
  E  E E E    E  E E E E Q    E E E E E E Q
|-7-------------------------|-----------------|
|---10-7------7-------------|-----------------|
|--------9b11---10-9-7---7--|---7-7S6-6s2-2---|
|----------------------9----|-9---------------|
|---------------------------|-----------------|
|---------------------------|-----------------|


                                                                  ~~~~~
                                           |-3--|  |--3--|
  E E E E S S E E E   E E S S E E E E E    Q Q  Q  Q  Q  Q    Q   H.
|-------------------|-------------------|------------------|--------------|
|-------------------|-------------------|------------------|--------------|
|-------------------|-----6h7p6---6-7-9-|-11-9-11-12-11-12-|-14--14b16----|
|-----7---6h7p6---6-|-7-9-------9-------|------------------|--------------|
|-7-9---9-------9---|-------------------|------------------|--------------|
|-------------------|-------------------|------------------|--------------|


                                                                       ~~
                           |--3--|           |--3--|
   E  E  E  Q   Q.         Q  Q  Q  S  S  E  E  E  E    S  S  E  E  E  H
|-------14-17--17b19====|=17-15-17-15h17p15-14-15-14-|----------------------|
|----15-----------------|----------------------------|-15h17p15----14-------|
|-16--------------------|----------------------------|----------16----16----|
|-----------------------|----------------------------|----------------------|
|-----------------------|----------------------------|----------------------|
|-----------------------|----------------------------|----------------------|


    Q   E  E  E  E  E  E     E  E  E  E  E  E  E  E
e|------------------------|-------------------------|
B|------------------------|-------------------------|
G|-16--16-14--------------|-------------------------|
D|-----------16-15-14-----|----14S12----14-12----12-|
A|--------------------17--|-14-------14-------14----|
E|------------------------|-------------------------|


                                       ~~~~~
    E  E  E  E  E  E  E  E    E  E  E  Q     E
e|-------------------------|-14-15-17-17b19-----|
B|----------------14-15-17-|--------------------|
G|----------14-16----------|--------------------|
D|-16-14-16----------------|--------------------|
A|-------------------------|--------------------|
E|-------------------------|--------------------|






/Instrument : Bass/
Tunning : Standard (EADG)


Intro (0:00)

G|--------|----------------|----------------|----------------|----------------|
D|--3h5---|--3-------------|----------------|----------------|----------------|
A|--------|----5-4-3-1---1-|3-4-3-1-3-1-----|3-4-3-1-3-1-----|----------------|
E|--------|------------3---|------------3-1-|------------3-1-|----------------|
  4 e + a  1 + 2 + 3 + 4 +  1 + 2 + 3 + 4 +  1 + 2 + 3 + 4 +  1 + 2 + 3 + 4 +  

G|----------------|----------------|----------------|-------------10h12--|
D|----------------|----------------|----------------|--------------------|
A|----------------|----------------|----------------|--------------------|
E|----------------|----------------|----------------|--------------------|
  1 + 2 + 3 + 4 +  1 + 2 + 3 + 4 +  1 + 2 + 3 + 4 +  1 + 2 + 3 + 4 e + a 

G|------------12-10-|----------------|----------------|----------------|
D|------------------|12--------------|----------------|----------------|
A|------------------|--10------------|----------------|----------------|
E|------------------|----------------|----------------|--------------3-|
  1 + 2 + 3 + 4  +   1 + 2 + 3 + 4 +  1 + 2 + 3 + 4 +  1 + 2 + 3 + 4 +



Pre-Verse (0:20)

G|----------------|----------------|----------------|----------------|
D|----------------|----------------|----------------|--------5-3-----|
A|----------------|----------------|----------------|------------5---|
E|--3-3-3-3-----3-|--3-3-3-3-3-3-3-|--3-3-3-3-----3-|--3-3-3-------3-|
  1 + 2 + 3 + 4 +  1 + 2 + 3 + 4 +  1 + 2 + 3 + 4 +  1 + 2 + 3 + 4 +  

G|----------------|----------------|--------------------|----------------|
D|----------------|----------------|--------------3h5---|--3---3-5-------|
A|----------------|----------------|--------------------|----5-----3-1---|
E|--3-3-3-3-----3-|--3-3-3-3-3-3-3-|--3-3-3-3-----------|--------------0-|
  1 + 2 + 3 + 4 +  1 + 2 + 3 + 4 +  1 + 2 + 3 + 4 e + a  1 + 2 + 3 + 4 +  



Verse I (0:31)

G|----------------|----------------|----------------|----------------|
D|----------------|----------------|----------------|----------------|
A|----------------|----------------|----------------|----------------|
E|--0-0-0-0-0-0-0-|--0-0-0-0-0-0-0-|--0-0-0-0-0-0-1-|--1-1-1-1-1-1-3-|
  1 + 2 + 3 + 4 +  1 + 2 + 3 + 4 +  1 + 2 + 3 + 4 +  1 + 2 + 3 + 4 +   

G|----------------|----------------|--------------------|----------------|
D|----------------|----------------|--------------3h5---|--3-3-3-3-------|
A|----------------|----------------|--------------------|----------5-3---|
E|--3-3-3-3-----3-|--3-3-3-3-3-3-3-|--3-3-3-3-----------|--------------0-|
  1 + 2 + 3 + 4 +  1 + 2 + 3 + 4 +  1 + 2 + 3 + 4 e + a  1 + 2 + 3 + 4 +  

G|----------------|----------------|----------------|----------------|
D|----------------|----------------|----------------|----------------|
A|----------------|----------------|----------------|----------------|
E|--0-0-0-0-0-0-0-|--0-0-0-0-0-0-0-|--0-0-0-0-0-0-1-|--1-1-1-1-1-1-3-|
  1 + 2 + 3 + 4 +  1 + 2 + 3 + 4 +  1 + 2 + 3 + 4 +  1 + 2 + 3 + 4 +   

G|----------------|----------------|----------------|----------------|
D|----------------|----------------|----------------|----------------|
A|----------------|----------------|----------------|--------------3-|
E|--3-3-3-3-----3-|--3-3-3-3-3-3-3-|--3-3-3-3-----3-|--3-3-3-3-1-0---|
  1 + 2 + 3 + 4 +  1 + 2 + 3 + 4 +  1 + 2 + 3 + 4 +  1 + 2 + 3 + 4 +  



Verse II (0:52)

G|----------------|----------------|----------------|----------------|
D|----------------|----------------|----------------|----------------|
A|--3-3-3-3-3-3-3-|--3-3-3-1-1-x-3-|--3-3-3-3-3-3-3-|--3-3-3-1-1-x-3-|
E|----------------|----------------|----------------|----------------|
  1 + 2 + 3 + 4 +  1 + 2 + 3 + 4 +  1 + 2 + 3 + 4 +  1 + 2 + 3 + 4 +  

G|----------------|----------------|----------------|----------------|
D|----------------|----------------|----------------|----------3-----|
A|--3-3-3-3-3-3-3-|--3-3-3-1-1-x-3-|--3-3-3-3-3-3-3-|--3-3-3-1---x-5-|
E|----------------|----------------|----------------|----------------|
  1 + 2 + 3 + 4 +  1 + 2 + 3 + 4 +  1 + 2 + 3 + 4 +  1 + 2 + 3 + 4 +  

G|----------------|----------------|----------------|----------------|
D|----------------|------------3---|----------------|----------------|
A|--5-5-5-5-5-5-5-|--5-5-x-3-3---5-|--5-5-5-5-5-5-5-|--5-5-x-3-3-x-5-|
E|----------------|----------------|----------------|----------------|
  1 + 2 + 3 + 4 +  1 + 2 + 3 + 4 +  1 + 2 + 3 + 4 +  1 + 2 + 3 + 4 +   

G|----------------|----------------|----------------|----------------|
D|----------------|----------------|----------------|----------------|
A|--5-5-5-5-5-5-5-|--5-5-x-3-3-x-5-|--5-5-5-5-5-5-5-|5-5-5-5-5-5-5---|
E|----------------|----------------|----------------|--------------3-|
  1 + 2 + 3 + 4 +  1 + 2 + 3 + 4 +  1 + 2 + 3 + 4 +  1 + 2 + 3 + 4 +    



Chorus (1:14)

G|----------------|----------------|----------------|----------------|
D|----------------|----------------|----------------|----------------|
A|----------------|----------------|----------------|----------------|
E|--3-3-3-3-3-3-3-|3-3-3-3-3-3-3-3-|--3-3-3-3-3-3-3-|3-3-3-3-3-3-3-3-|
  1 + 2 + 3 + 4 +  1 + 2 + 3 + 4 +  1 + 2 + 3 + 4 +  1 + 2 + 3 + 4 +  

G|----------------|----------------|----------------|----------------|
D|----------------|----------------|----------------|----------------|
A|----------------|--------------3-|--3-3-3-3-3-3-3-|3-4-3-1-3-1-----|
E|--3-3-3-3-3-3-3-|3-3-3-3-3-3-3---|----------------|------------1-3-|
  1 + 2 + 3 + 4 +  1 + 2 + 3 + 4 +  1 + 2 + 3 + 4 +  1 + 2 + 3 + 4 +  

G|----------------|----------------|----------------|----------------|
D|----------------|----------------|----------------|----------------|
A|----------------|----------------|----------------|----------------|
E|--3-3-3-3-3-3-3-|3-3-3-3-3-3-3-3-|--3-3-3-3-3-3-3-|3-3-3-3-3-3-3-3-|
  1 + 2 + 3 + 4 +  1 + 2 + 3 + 4 +  1 + 2 + 3 + 4 +  1 + 2 + 3 + 4 +  

G|----------------|----------------|----------------|----------------|
D|----------------|----------------|----------------|----------------|
A|----------------|--------------3-|--3-3-3-3-3-3-3-|3-4-3-1-3-1-----|
E|--3-3-3-3-3-3-3-|3-3-3-3-3-3-3---|----------------|------------1-3-|
  1 + 2 + 3 + 4 +  1 + 2 + 3 + 4 +  1 + 2 + 3 + 4 +  1 + 2 + 3 + 4 +  



Pre-Verse (1:35)

G|----------------|----------------|----------------|----------------|
D|----------------|----------------|----------------|----------3-----|
A|----------------|----------------|----------------|------------5---|
E|--3-3-3-3-----3-|--3-3-3-3-3-3-3-|--3-3-3-3-----3-|--3-3-3-3-----3-|
  1 + 2 + 3 + 4 +  1 + 2 + 3 + 4 +  1 + 2 + 3 + 4 +  1 + 2 + 3 + 4 +  

G|----------------|----------------|--------------------|----------------|
D|----------------|----------------|--------------3h5---|--3---3---------|
A|----------------|----------------|--------------------|----5---5-4-3---|
E|--3-3-3-3-----3-|--3-3-3-3-3-3-3-|--3-3-3-3-----------|--------------0-|
  1 + 2 + 3 + 4 +  1 + 2 + 3 + 4 +  1 + 2 + 3 + 4 e + a  1 + 2 + 3 + 4 +  



Verse I (1:46)

G|----------------|----------------|----------------|----------------|
D|----------------|----------------|----------------|----------------|
A|----------------|----------------|----------------|----------------|
E|--0-0-0-0-0-0-0-|--0-0-0-0-0-0-0-|--0-0-0-0-0-0-1-|--1-1-1-1-1-1-3-|
  1 + 2 + 3 + 4 +  1 + 2 + 3 + 4 +  1 + 2 + 3 + 4 +  1 + 2 + 3 + 4 +   

G|----------------|----------------|----------------|------------------|
D|----------------|----------------|----------------|--------3h5---3---|
A|----------------|----------------|----------------|------------5-----|
E|--3-3-3-3-----3-|--3-3-3-3-3-3-3-|--3-3-3-3-----3-|--3-3-3---------0-|
  1 + 2 + 3 + 4 +  1 + 2 + 3 + 4 +  1 + 2 + 3 + 4 +  1 + 2 + a 3 + 4 +  

G|----------------|----------------|----------------|----------------|
D|----------------|----------------|----------------|----------------|
A|----------------|----------------|----------------|----------------|
E|--0-0-0-0-0-0-0-|--0-0-0-0-0-0-0-|--0-0-0-0-0-0-1-|--1-1-1-1-1-1-3-|
  1 + 2 + 3 + 4 +  1 + 2 + 3 + 4 +  1 + 2 + 3 + 4 +  1 + 2 + 3 + 4 +   

G|----------------|----------------|----------------|----------------|
D|----------------|----------------|----------------|----------------|
A|----------------|----------------|----------------|--------------3-|
E|--3-3-3-3-----3-|--3-3-3-3-3-3-3-|--3-3-3-3-----3-|--3-3-3-3-1-0---|
  1 + 2 + 3 + 4 +  1 + 2 + 3 + 4 +  1 + 2 + 3 + 4 +  1 + 2 + 3 + 4 +  



Verse II (2:07)

G|----------------|----------------|----------------|----------------|
D|----------------|----------------|----------------|----------------|
A|--3-3-3-3-3-3-3-|--3-3-3-1-1-x-3-|--3-3-3-3-3-3-3-|--3-3-3-1-1-x-3-|
E|----------------|----------------|----------------|----------------|
  1 + 2 + 3 + 4 +  1 + 2 + 3 + 4 +  1 + 2 + 3 + 4 +  1 + 2 + 3 + 4 +  

G|----------------|----------------|----------------|----------------|
D|----------------|----------------|----------------|----------3-----|
A|--3-3-3-3-3-3-3-|--3-3-3-1-1-x-3-|--3-3-3-3-3-3-3-|--3-3-3-1---x-5-|
E|----------------|----------------|----------------|----------------|
  1 + 2 + 3 + 4 +  1 + 2 + 3 + 4 +  1 + 2 + 3 + 4 +  1 + 2 + 3 + 4 +  

G|----------------|----------------|----------------|----------------|
D|----------------|----------------|----------------|----------3-----|
A|--5-5-5-5-5-5-5-|--5-5-x-3-3-x-5-|--5-5-5-5-5-5-5-|--5-5-x-3---x-5-|
E|----------------|----------------|----------------|----------------|
  1 + 2 + 3 + 4 +  1 + 2 + 3 + 4 +  1 + 2 + 3 + 4 +  1 + 2 + 3 + 4 +   

G|----------------|----------------|----------------|----------------|
D|----------------|----------------|----------------|----------------|
A|--5-5-5-5-5-5-5-|--5-5-x-3-3-x-5-|--5-5-5-5-5-5-5-|5-5-5-5-5-5-5---|
E|----------------|----------------|----------------|--------------3-|
  1 + 2 + 3 + 4 +  1 + 2 + 3 + 4 +  1 + 2 + 3 + 4 +  1 + 2 + 3 + 4 +  



Chorus (2:28)

G|----------------|----------------|----------------|----------------|
D|----------------|----------------|----------------|----------------|
A|----------------|----------------|----------------|----------------|
E|--3-3-3-3-3-3-3-|3-3-3-3-3-3-3-3-|--3-3-3-3-3-3-3-|3-3-3-3-3-3-3-3-|
  1 + 2 + 3 + 4 +  1 + 2 + 3 + 4 +  1 + 2 + 3 + 4 +  1 + 2 + 3 + 4 +  

G|----------------|----------------|----------------|----------------|
D|----------------|----------------|----------------|----------------|
A|----------------|--------------3-|--3-3-3-3-3-3-3-|3-4-3-1-3-1-----|
E|--3-3-3-3-3-3-3-|3-3-3-3-3-3-3---|----------------|------------1-3-|
  1 + 2 + 3 + 4 +  1 + 2 + 3 + 4 +  1 + 2 + 3 + 4 +  1 + 2 + 3 + 4 +  

G|----------------|----------------|----------------|----------------|
D|----------------|----------------|----------------|----------------|
A|----------------|----------------|----------------|----------------|
E|--3-3-3-3-3-3-3-|3-3-3-3-3-3-3-3-|--3-3-3-3-3-3-3-|3-3-3-3-3-3-3-3-|
  1 + 2 + 3 + 4 +  1 + 2 + 3 + 4 +  1 + 2 + 3 + 4 +  1 + 2 + 3 + 4 +  

G|----------------|----------------|----------------|----------------|
D|----------------|----------------|----------------|----------------|
A|----------------|--------------3-|--3-3-3-3-3-3-3-|3-4-3-1-3-1-----|
E|--3-3-3-3-3-3-3-|3-3-3-3-3-3-3---|----------------|------------1-5-|
  1 + 2 + 3 + 4 +  1 + 2 + 3 + 4 +  1 + 2 + 3 + 4 +  1 + 2 + 3 + 4 +  



Solo I (2:49)

G|----------------|----------------|----------------|----------------|
D|----------------|----------------|----------------|----------------|
A|----------------|----------------|----------------|----------------|
E|--5-5-5-5-5-5-5-|5-5-5-5-5-5-5-3-|--3-3-3-3-3-3-3-|3-3-3-5-3-1-0-5-|
  1 + 2 + 3 + 4 +  1 + 2 + 3 + 4 +  1 + 2 + 3 + 4 +  1 + 2 + 3 + 4 +  

G|----------------|----------------|----------------|----------------|
D|----------------|----------------|----------------|----------------|
A|----------------|--------------5-|--5-5-5-5-5-x---|----------------|
E|--5-5-5-5-5-5-5-|5-5-5-5-5-3-0---|--------------3-|--3-3-3-3-3-x-5-|
  1 + 2 + 3 + 4 +  1 + 2 + 3 + 4 +  1 + 2 + 3 + 4 +  1 + 2 + 3 + 4 +  

G|----------------|----------------|----------------|----------------|
D|----------------|----------------|----------------|----------------|
A|----------------|----------------|----------------|----------------|
E|--5-5-5-5-5-5-5-|5-5-5-5-5-5-5-3-|--3-3-3-3-3-3-3-|3-3-3-5-3-1-0-5-|
  1 + 2 + 3 + 4 +  1 + 2 + 3 + 4 +  1 + 2 + 3 + 4 +  1 + 2 + 3 + 4 +  

G|----------------|----------------|----------------|----------------|
D|----------------|----------------|----------------|----------------|
A|----------------|--------------5-|--5-5-5-5-5-x---|--------------2-|
E|--5-5-5-5-5-5-5-|5-5-5-5-5-3-0---|--------------3-|--3-3-3-3-3-x---|
  1 + 2 + 3 + 4 +  1 + 2 + 3 + 4 +  1 + 2 + 3 + 4 +  1 + 2 + 3 + 4 +  



Solo II (3:09)

G|----------------|----------------|----------------|----------------|
D|----------------|----------------|----------------|----------------|
A|--2-2-2-2-2-2-2-|2-2-2-2-2-2-2-0-|--0-0-0-0-0-0-0-|0-0-0-0-0-0-0-2-|
E|----------------|----------------|----------------|----------------|
  1 + 2 + 3 + 4 +  1 + 2 + 3 + 4 +  1 + 2 + 3 + 4 +  1 + 2 + 3 + 4 +     

G|----------------|----------------|----------------|----------------|
D|----------------|--------------2-|--2-2-2-2-2-x---|----------------|
A|--2-2-2-2-2-2-2-|2-2-2-2-2-2-0---|--------------0-|--0-0-0-0-0-0-2-|
E|----------------|----------------|----------------|----------------|
  1 + 2 + 3 + 4 +  1 + 2 + 3 + 4 +  1 + 2 + 3 + 4 +  1 + 2 + 3 + 4 +  

G|----------------|----------------|----------------|----------------|
D|----------------|----------------|----------------|----------------|
A|--2-2-2-2-2-2-2-|2-2-2-2-2-2-2-0-|--0-0-0-0-0-0-0-|0-0-0-0-0-0-0-2-|
E|----------------|----------------|----------------|----------------|
  1 + 2 + 3 + 4 +  1 + 2 + 3 + 4 +  1 + 2 + 3 + 4 +  1 + 2 + 3 + 4 +     

G|----------------|----------------|----------------|----------------|
D|----------------|--------------2-|--2-2-2-2-2-x---|----------------|
A|--2-2-2-2-2-2-2-|2-2-2-2-2-2-0---|--------------0-|--0-0-0-0-0-0-3-|
E|----------------|----------------|----------------|----------------|
  1 + 2 + 3 + 4 +  1 + 2 + 3 + 4 +  1 + 2 + 3 + 4 +  1 + 2 + 3 + 4 +  



Solo III (3:30)

G|----------------|----------------|----------------|----------------|
D|----------------|----------------|----------------|--------3-3-----|
A|--3-3-3-3-3-3-3-|3-3-3-3-1-1-x-3-|--3-3-3-3-3-3-3-|3-3-3-3-----x-3-|
E|----------------|----------------|----------------|----------------|
  1 + 2 + 3 + 4 +  1 + 2 + 3 + 4 +  1 + 2 + 3 + 4 +  1 + 2 + 3 + 4 +     

G|----------------|----------------|----------------|----------------|
D|----------------|----------------|----------------|----------------|
A|--3-3-3-3-3-3-3-|3-3-3-3-1-1-x-3-|--3-3-3-3-3-3-3-|3-3-3-1---1-1/5-|
E|----------------|----------------|----------------|----------------|
  1 + 2 + 3 + 4 +  1 + 2 + 3 + 4 +  1 + 2 + 3 + 4 +  1 + 2 + 3 + 4 +  

G|----------------|----------------|----------------|----------------|
D|----------------|----------------|----------------|----------------|
A|--5-5-5-5-5-5-5-|--5-5-5-3-3-x-5-|--5-5-5-5-5-5-5-|--5-5-5-3-3-x-5-|
E|----------------|----------------|----------------|----------------|
  1 + 2 + 3 + 4 +  1 + 2 + 3 + 4 +  1 + 2 + 3 + 4 +  1 + 2 + 3 + 4 +   

G|----------------|----------------|----------------|----------------|
D|----------------|----------------|----------------|----------------|
A|--5-5-5-5-5-5-5-|--5-5-3-3-3-x-5-|--5-5-5-5-5-5-5-|5-5-5-5-5-5-5---|
E|----------------|----------------|----------------|--------------3-|
  1 + 2 + 3 + 4 +  1 + 2 + 3 + 4 +  1 + 2 + 3 + 4 +  1 + 2 + 3 + 4 +  



Chorus (3:51)

G|----------------|----------------|----------------|----------------|
D|----------------|----------------|----------------|----------------|
A|----------------|----------------|----------------|----------------|
E|--3-3-3-3-3-3-3-|3-3-3-3-3-3-3-3-|--3-3-3-3-3-3-3-|3-3-3-3-3-3-3-3-|
  1 + 2 + 3 + 4 +  1 + 2 + 3 + 4 +  1 + 2 + 3 + 4 +  1 + 2 + 3 + 4 +  

G|----------------|----------------|----------------|----------------|
D|----------------|----------------|----------------|----------------|
A|----------------|--------------3-|--3-3-3-3-3-3-3-|3-4-3-1-3-1-----|
E|--3-3-3-3-3-3-3-|3-3-3-3-3-3-3---|----------------|------------1-3-|
  1 + 2 + 3 + 4 +  1 + 2 + 3 + 4 +  1 + 2 + 3 + 4 +  1 + 2 + 3 + 4 +  

G|----------------|----------------|----------------|----------------|
D|----------------|----------------|----------------|----------------|
A|----------------|----------------|----------------|----------------|
E|--3-3-3-3-3-3-3-|3-3-3-3-3-3-3-3-|--3-3-3-3-3-3-3-|3-3-3-3-3-3-3-3-|
  1 + 2 + 3 + 4 +  1 + 2 + 3 + 4 +  1 + 2 + 3 + 4 +  1 + 2 + 3 + 4 +  

G|----------------|----------------|----------------|----------------|
D|----------------|----------------|----------------|----------------|
A|----------------|--------------3-|--3-3-3-3-3-3-3-|3-4-3-1-3-1-----|
E|--3-3-3-3-3-3-3-|3-3-3-3-3-3-3---|----------------|------------1-3-|
  1 + 2 + 3 + 4 +  1 + 2 + 3 + 4 +  1 + 2 + 3 + 4 +  1 + 2 + 3 + 4 +  

G|----------------|----------------|----------------|----------------|
D|----------------|----------------|--------------5-|--5-----5-------|
A|----------------|----------------|----------------|----------------|
E|--3-3-3-3-3-3-3-|3-3-3-3-3-3-3-3-|--3-3-3-3-3-3---|3---3-3---3-3-3-|
  1 + 2 + 3 + 4 +  1 + 2 + 3 + 4 +  1 + 2 + 3 + 4 +  1 + 2 + 3 + 4 +  

G|----------------|----------------|----------------|----------------|
D|--------5---5---|------5---5-----|----------------|----------------|
A|----------------|--------------3-|--3-3-3-3-3-3-3-|3-4-3-1-3-1-----|
E|--3-3-3---3---3-|3-3-3---3---3---|----------------|------------1-3-|
  1 + 2 + 3 + 4 +  1 + 2 + 3 + 4 +  1 + 2 + 3 + 4 +  1 + 2 + 3 + 4 +  

G|----------------|----------------|----------------|----------------|
D|----------------|----------------|----------------|----------------|
A|----------------|----------------|----------------|----------------|
E|--3-3-3-3-3-3-3-|3-3-3-3-3-3-3-3-|3-3-3-3-3-3-3-3-|3-3-3-3-3-3-3-3-|
  1 + 2 + 3 + 4 +  1 + 2 + 3 + 4 +  1 + 2 + 3 + 4 +  1 + 2 + 3 + 4 +  

G|----------------|----------------|----------------|--------------------|
D|----------------|----------------|----------------|--------------3h5---|
A|----------------|--------------3-|--3-3-3-3-3-3-3-|3-4-3-1-3-1---------|
E|3-3-3-3-3-3-3-3-|3-3-3-3-3-3-3---|----------------|------------1-------|
  1 + 2 + 3 + 4 +  1 + 2 + 3 + 4 +  1 + 2 + 3 + 4 +  1 + 2 + 3 + 4 e + a  



Outro (4:32)

G|----------------|----------------|----------------|----------------|
D|--3-------------|----------------|----------------|----------------|
A|----5-4-3-1---1-|3-4-3-1-3-1-----|----------------|----------------|
E|------------3---|------------3-1-|----------------|----------------|
  1 + 2 + 3 + 4 +  1 + 2 + 3 + 4 +  1 + 2 + 3 + 4 +  1 + 2 + 3 + 4 +     


Тональность:

Это должно быть в ТОП-листе! - Топ-лист композиций



Назад
Рекомендуем посмотреть другие песни исполнителя «Iron Maiden»:

  • Комменты Fb ()
  • Комменты ВК



Добавить в Избранное Браузера
Сохранить здесь Очистить


x

0


+
-

+
-

-

Авторизация





Зарегистрироваться

M

Дата и время

  • 09:55:45
     

Социальные ссылки


Наши приложения

  • Muzbank App Play Market
  • Muzbank Amazon App