MUZBANK


МУЗЫКАЛЬНО-ИНФОРМАЦИОННЫЙ БАНК





IIron Maiden • The Mercenary (аккорды и текст - chords & lyrics)


440

Print

Видео «The Mercenary (Iron Maiden)»

Видео клипы к песне подбираются автоматически сайтом youtube. Возможны некоторые несоответствия клипов песне.

↑ Спрятать рекламу ↑





 


( GERS/HARRIS )

Intro: Riff 1
Em
----------------------------------------
----------------------------------------
----------------------------------------
-9-7-9-12-11-9--9-7-9-12h11h14-
-7-5-7-10-9--7--7-5-7--10h9h-12-
-------------------------------------------


Verse:
Em
---------------------------
---------------------------
-------------------------
--9--7--9----12--11--9-
--7--5--7----10---9--7-
---------------------------
Pay to kill, die to lose

------------------------------------
------------------------------------
-----------------------------------
--9--7---9-12h-11h----14--
--7--5---7-10h-9h-----12--
------------------------
Hunted, hunter which you are

 

Тональность:

Это должно быть в ТОП-листе! - Топ-лист композиций



Назад
Рекомендуем посмотреть другие песни исполнителя «Iron Maiden»:

  • Комменты Fb ()
  • Комменты ВК



Добавить в Избранное Браузера
Сохранить здесь Очистить


x

0


+
-

+
-

-

Авторизация





Зарегистрироваться

M

Дата и время

  • 12:12:30
     

Социальные ссылки


Наши приложения

  • Muzbank App Play Market
  • Muzbank Amazon App