MUZBANK


МУЗЫКАЛЬНО-ИНФОРМАЦИОННЫЙ БАНК





JJack Off Jill • Author Unknown (аккорды и текст - chords & lyrics)


412

Print

Видео «Author Unknown (Jack Off Jill)»

Видео клипы к песне подбираются автоматически сайтом youtube. Возможны некоторые несоответствия клипов песне.

↑ Спрятать рекламу ↑





 


-----------------------------------------------------------------------------
			     Author Unknown - Jack Off Jill
-----------------------------------------------------------------------------
Tabbed by: Evilduckychik
Email:

Tuning: Standard

Intro/

e|--------------------------------------------------------------------------|
B|--------------------------------------------------------------------------|
G|--6--4--------------------------------------------------------------------|
D|--6--4--4-----------------------------------------------------------------|
A|--4--2--4-----------------------------------------------------------------|
E|--------2-----------------------------------------------------------------|

Chorus

e|--------------------------------------------------------------------------|
B|--------------------------------------------------------------------------|
G|--------------6--------------------------6--4-----------------------------|
D|----6-6-6-6-6-6--------6-6-6-6-6-4-------6--4--4--------------------------|
A|----6-6-6-6-6-4--------6-6-6-6-6-4-------4--2--4--------------------------|
E|----4-4-4-4-4----------4-4-4-4-4-2-------------2--------------------------|

End

e|--------------------------------------------------------------------------|
B|--------------------------------------------------------------------------|
G|---4--6-------------------------------------------------------------------|
D|---4 

Тональность:

Это должно быть в ТОП-листе! - Топ-лист композиций



Назад
Рекомендуем посмотреть другие песни исполнителя «Jack Off Jill»:

  • Комменты Fb ()
  • Комменты ВК



Добавить в Избранное Браузера
Сохранить здесь Очистить


x

0


+
-

+
-

-

Авторизация





Зарегистрироваться

M

Дата и время

  • 10:34:55
     

Социальные ссылки


Наши приложения

  • Muzbank App Play Market
  • Muzbank Amazon App