MUZBANK


МУЗЫКАЛЬНО-ИНФОРМАЦИОННЫЙ БАНК





JJaguares • Clavame Mejor Los Dientes (аккорды и текст - chords & lyrics)


353

Print

Видео «Clavame Mejor Los Dientes (Jaguares)»

Видео клипы к песне подбираются автоматически сайтом youtube. Возможны некоторые несоответствия клипов песне.

↑ Спрятать рекламу ↑





 


Aqui esta, esta gran rola de Jaguares espero les guste:

< = bending up
> = bending down

INTRO RIFF 1
D--------------------
A--------5---------0-
E--0-2-3---3-2-3-2---

RIFF2                   RIFF 3
e------------           e----2-------2----2---2-
B------------           B------3------3---------
G------------           G--------2------2---2---
D------------           D--0--------------------
A----------0-           A-----------------------
E--0-2-3-2---           E-----------------------

INTRO

RIFF 2

 Am           C
NADA DE LO QUE HAGAS TU
G               D       RIFF 3
ME HARA DEJAR DE QUERERTE
 Am            C
CADA VEZ QUE TU TE VAS 
G            D             RIFF 4
JAMAS TE VAS SOLO TE PIERDES


RIFF 4
G----------------------
D----------5-7-7-7-5---
A--5-5-5-7-----------0-
E----------------------


CORO:
 Am         C            D
DIME SI DE VERAS CREES QUE SE PUEDEN 
              A
DESVIAR A LOS PLANETAS
      C              D
DE UNA TRAYECTORIA DE COLISION

* ENTRE EL CORO LLEVA UN ARREGLO COMO ESTE:
e---------------
B---------------
G------9->---
D--0~-----------

RIFF 2

 Am            C
SI LO QUE PRETENDES ES 
G             D          RIFF 1
HACERME SANGRAR NUEVAMENTE
 Am            C
CLAVAME MEJOR LOS DIENTES
G                  D      RIFF 4
O ENTIERRAME TODAS LAS U 

Тональность:

Это должно быть в ТОП-листе! - Топ-лист композиций



Назад
Рекомендуем посмотреть другие песни исполнителя «Jaguares»:

  • Комменты Fb ()
  • Комменты ВК



Добавить в Избранное Браузера
Сохранить здесь Очистить


x

0


+
-

+
-

-

Авторизация





Зарегистрироваться

M

Дата и время

  • 00:40:01
     

Социальные ссылки


Наши приложения

  • Muzbank App Play Market
  • Muzbank Amazon App