MUZBANK


МУЗЫКАЛЬНО-ИНФОРМАЦИОННЫЙ БАНК





JJean-Louis Murat • Baby Carni Bird (аккорды и текст - chords & lyrics)


363

Print

Видео «Baby Carni Bird (Jean-Louis Murat)»

Видео клипы к песне подбираются автоматически сайтом youtube. Возможны некоторые несоответствия клипов песне.

↑ Спрятать рекламу ↑





 


Musique: = 2002 "Le moujik et sa femme"

 Riff 1
 Dm Cm Gm
 
 Something like this (with muting):

   Dm       Cm       Gm           
 e---5x-------3x-----3-...-|
 B---6x--x----4x--x--3-...-|
 G-7-7x--x--5-5x--x--3-...-|
 D-7-7x--x--5-5x--x--5-...-|
 A-5--------3--------5-...-|
 E-------------------3-...-|

 Riff 2 (with wah-wah)
                                     /
 e-1-1-1/3---(1)-1-1-3---...-(1)-1-1-15--|
 B-1-1-1/3---(1)-1-1-3---...-(1)-1-1-----|
 G-----------------------...-------------|
 ........................................|

 Riff 1 (during whole song)

 He frere regarde c 

Тональность:

Это должно быть в ТОП-листе! - Топ-лист композиций



Назад
Рекомендуем посмотреть другие песни исполнителя «Jean-Louis Murat»:

  • Комменты Fb ()
  • Комменты ВК



Добавить в Избранное Браузера
Сохранить здесь Очистить


x

0


+
-

+
-

-

Авторизация





Зарегистрироваться

M

Дата и время

  • 06:12:07
     

Социальные ссылки


Наши приложения

  • Muzbank App Play Market
  • Muzbank Amazon App