MUZBANK


МУЗЫКАЛЬНО-ИНФОРМАЦИОННЫЙ БАНК





JJean-Louis Murat • Ceux De Mycenes (аккорды и текст - chords & lyrics)


398

Print

Видео «Ceux De Mycenes (Jean-Louis Murat)»

Видео клипы к песне подбираются автоматически сайтом youtube. Возможны некоторые несоответствия клипов песне.

↑ Спрятать рекламу ↑





 


Musique: = 2002 "Le moujik et sa femme"

  Riff 1
              Bm   B5   Bm   B5
 e------------2--2-2----2--2-2-|
 B------------3--3-2----3--3-2-|
 G------------4--4-4----4--4-4-|
 D--0-0-------4--4-4----4--4-4-|
 A-------2---------------------|
 E-----------------------------|

  Riff 2
                          Bm   B5   Bm   B5
 e------------------------2--2-2----2--2-2-|
 B------------------------3--3-2----3--3-2-|
 G-4-2--------------------4--4-4----4--4-4-|
 D-----4--0--0--0-0-------4--4-4----4--4-4-|
 A-------------------2---------------------|
 E-----------------------------------------|

  Riff 3 (before F#m)
                     F#m
 e-------------------2...-|
 B-------------------2...-|
 G-4-2---------------2...-|
 D-----4--0--0--0-0--4...-|
 A-------------------4...-|
 E-------------------2...-|


 Riff 1
 Riff 2

  Tu me veux dans la demesure
  que je gicle une eau noire
  que je creve dans l 

Тональность:

Это должно быть в ТОП-листе! - Топ-лист композиций



Назад
Рекомендуем посмотреть другие песни исполнителя «Jean-Louis Murat»:

  • Комменты Fb ()
  • Комменты ВК



Добавить в Избранное Браузера
Сохранить здесь Очистить


x

0


+
-

+
-

-

Авторизация





Зарегистрироваться

M

Дата и время

  • 06:17:52
     

Социальные ссылки


Наши приложения

  • Muzbank App Play Market
  • Muzbank Amazon App