MUZBANK


МУЗЫКАЛЬНО-ИНФОРМАЦИОННЫЙ БАНК





JJean-Louis Murat • Mustang (аккорды и текст - chords & lyrics)


428

Print

Видео «Mustang (Jean-Louis Murat)»

Видео клипы к песне подбираются автоматически сайтом youtube. Возможны некоторые несоответствия клипов песне.

↑ Спрятать рекламу ↑





 


Paroles et Musique: Jean-Louis Murat 
 1999 "Mustango"

    Dm                      p
 e-------1-0--------1-0--------------------------|
 B-------3-3--------3-3----------1-3-3/5--3-1----|
 G----2----------2-------------2---------------2-|
 D-0----------0----------0-----------------------|
 A-----------------------------------------------|
 E-----------------------------------------------|

    Am                      p
 e------------------------------------------------|
 B-------1-0--------1-0---------------------------|
 G-------2-2--------2-2----------0-2-2/4--2-0-----|
 D----2----------2-------------2----------------2-|
 A-0----------0----------0------------------------|
 E------------------------------------------------|

  "p" - short pause
 (There is no any pause between Dm and Am, 
  also as between Am and G)

   G           F           Em         D5                   (C*)
 e--------------------------------------------------------------...-|
 B-------0-----------1----------0---------3---3---3---3---3-1-3-...-|
 G-------0-----------2----------0---------2---2---2---2---2(2)2-...-|
 D-----0---0-------3---3------2---2---0---0---0---0---0---0---0-...-|
 A---------------------------------------------------------(3)--...-|
 E-3-----------1-----------0------------------------------------...-|

 Dm
 Des quasars des prairies
 Un vent solaire sur les hanches
 Am
 Puisatier galaxies
 Quinze milliards dans le ventre
 Dm
 Un renard dans la nuit
 M31 dans le noir
 Am
 Par nature sans Dieu
 Engage dans l 

Тональность:

Это должно быть в ТОП-листе! - Топ-лист композиций



Назад
Рекомендуем посмотреть другие песни исполнителя «Jean-Louis Murat»:

  • Комменты Fb ()
  • Комменты ВК



Добавить в Избранное Браузера
Сохранить здесь Очистить


x

0


+
-

+
-

-

Авторизация





Зарегистрироваться

M

Дата и время

  • 16:44:51
     

Социальные ссылки


Наши приложения

  • Muzbank App Play Market
  • Muzbank Amazon App