MUZBANK


МУЗЫКАЛЬНО-ИНФОРМАЦИОННЫЙ БАНК





JJimmy Eat World • Clarity (аккорды и текст - chords & lyrics)


355

Print

Видео «Clarity (Jimmy Eat World)»

Видео клипы к песне подбираются автоматически сайтом youtube. Возможны некоторые несоответствия клипов песне.

↑ Спрятать рекламу ↑





 


-------------------------------------------------------------------------------
			   Clarity - Jimmy Eat World
-------------------------------------------------------------------------------
Tabbed: Andy Picker 

Standard Tuning
^ bend

Guitar 1              Play 2x
e|--x------------------------------------------------------------------------|
B|--x----------------------------------------------------------1-1-1-1-1-1---|
G|--x-(x7)-6-6-6-6-6-6-6-6-4-4-4-4-4-4-4-4-------------2-2-2-2-2-2-2-2-2-2---| 
D|--x------6-6-6-6-6-6-6-6-4-4-4-4-4-4-4-4-7-7-7-7-7-7-2-2-2-2-2-2-2-2-2-2---|
A|--x------4-4-4-4-4-4-4-4-2-2-2-2-2-2-2-2-7-7-7-7-7-7-0-0-0-0-0-0-0-0-0-0---|
E|--x--------------------------------------5-5-5-5-5-5-----------------------|

Guitar 2              Play 2x

e|--0-0-0-0-0-0-0-0-0-0-0-0-0-4-0-0-0-0-0-0-0-0-0-0-0-0-0-0--|
B|--4-5-4-5-7-5-4-5-4-5-4-5-7---7-4-4-5-4-5-5-5-4-5-4-5-5-5--|
G|-----------------------------------------------------------|
D|-----------------------------------------------------------|
A|-----------------------------------------------------------|
E|-----------------------------------------------------------|

 

Тональность:

Это должно быть в ТОП-листе! - Топ-лист композиций



Назад
Рекомендуем посмотреть другие песни исполнителя «Jimmy Eat World»:

  • Комменты Fb ()
  • Комменты ВК



Добавить в Избранное Браузера
Сохранить здесь Очистить


x

0


+
-

+
-

-

Авторизация





Зарегистрироваться

M

Дата и время

  • 16:46:49
     

Социальные ссылки


Наши приложения

  • Muzbank App Play Market
  • Muzbank Amazon App