MUZBANK


МУЗЫКАЛЬНО-ИНФОРМАЦИОННЫЙ БАНК





JJua Music • Exploding Pineapples (аккорды и текст - chords & lyrics)


392

Print

Видео «Exploding Pineapples (Jua Music)»

Видео клипы к песне подбираются автоматически сайтом youtube. Возможны некоторые несоответствия клипов песне.

↑ Спрятать рекламу ↑





 


Exploding pineapples 

Intro 
                                         1st 
|---------------------------------------------|----------------| 
|---------------------------------------------|----------------|
|---------------------------------------------|----------------| 
|---------------------------------------------|-------5-7-5----|
|-5h7-------------------------5h7-------------|-5-7-8-------8--| 
|-----8-0-0-0-0-0-8-8-8-7-5-0-----8-0-0-0-0-0-|----------------|

   2nd             3rd               4th 
|----------------|----------------|----------------| 
|----------------|----------------|----------------| 
|----------------|----------------|----------------| 
|-----4-5-4------|-----7-5--------|-------7-5------| 
|-5-7-------7-5--|-5-8-----8-7-5--|-5-7-8-----8-7--| 
|----------------|----------------|----------------|

 Verse				         	1st	     2nd 	
|----------------|---------------------------------------|------------|
|----------------|---------------------------------------|------------|
|----------------|---------------------------------------|------------|
|-7----------7/--|-7/9---------------7/9---7/9---7/9-7/9-|-7/9 

Тональность:

Это должно быть в ТОП-листе! - Топ-лист композиций



Назад
Рекомендуем посмотреть другие песни исполнителя «Jua Music»:

  • Комменты Fb ()
  • Комменты ВК



Добавить в Избранное Браузера
Сохранить здесь Очистить


x

0


+
-

+
-

-

Авторизация





Зарегистрироваться

M

Дата и время

  • 13:22:32
     

Социальные ссылки


Наши приложения

  • Muzbank App Play Market
  • Muzbank Amazon App