MUZBANK


МУЗЫКАЛЬНО-ИНФОРМАЦИОННЫЙ БАНК





JJuanes • Fotografa (аккорды и текст - chords & lyrics)


424

Print

Видео «Fotografa (Juanes)»

Видео клипы к песне подбираются автоматически сайтом youtube. Возможны некоторые несоответствия клипов песне.

↑ Спрятать рекламу ↑





 


*Intro:

-electric guitar

1. ---------|---------|-------------|-------------|-2-------|
2. -3-0-----|-3-------|-----------0-|-----0-----0-|---5-3-3-|
3. -----2-0-|---4-0-2-|---0-----0---|---0-----0---|---------|
4. ---------|---------|-2---0-4-----|-2-----0-----|---------|
5. ---------|---------|-------------|-------------|---------|
6. ---------|---------|-------------|-------------|---------|


-acustic guitar

1. -----------------------------------------|
2. -----3---------3---------0---------1-----|
3. -------0---------2---------0---------0---|
4. ---0-----0---0-----0---2-----2---2-----0-|X2
5. -----------------------------------------|
6. -3---------2---------0---------0---------|

*Verse:


 G       D/F#      Em           C                  G
Cada vez que yo me voy, llevo a un lado de mi piel,
1. ---------------------------------------------------|
2. -----3---------3---------0---------1---------3-----|
3. -------0---------2---------0---------0---------0---|
4. ---0-----0---0-----0---2-----2---2-----0---0-----0-|
5. ---------------------------------------------------|
6. -3---------2---------0---------0---------3---------|
D/F#       Em           C          G
tus f 

Тональность:

Это должно быть в ТОП-листе! - Топ-лист композиций



Назад
Рекомендуем посмотреть другие песни исполнителя «Juanes»:

  • Комменты Fb ()
  • Комменты ВК



Добавить в Избранное Браузера
Сохранить здесь Очистить


x

0


+
-

+
-

-

Авторизация





Зарегистрироваться

M

Дата и время

  • 09:47:39
     

Социальные ссылки


Наши приложения

  • Muzbank App Play Market
  • Muzbank Amazon App