MUZBANK


МУЗЫКАЛЬНО-ИНФОРМАЦИОННЫЙ БАНК





JJuanes • Me Enamora (аккорды и текст - chords & lyrics)


96

Print

Видео «Me Enamora (Juanes)»

Видео клипы к песне подбираются автоматически сайтом youtube. Возможны некоторые несоответствия клипов песне.

↑ Спрятать рекламу ↑





Intro:
E|------------------------------------------------|
B|-----5---5---5---5------------5---5---5---5-----|
G|---4---7---6---4-----6------4---7---6---4-----6-|
D|-------------------7------------------------7---|
A|------------------------------------------------|
E|------------------------------------------------|

E|------------------------------------------------|
B|------------------------------------------------|
G|------------4-7-6--6-4---4----------------------|
D|-----4-5-7-------------6---5-5-5-4--------------|
A|---7-------------------------------7------------|
E|------------------------------------------------|

E|--------------------------------------------|
B|--------------------------------------------|
G|---9-7-9---7-------------9-7-9---7----------|
D|---------9---7-7---------------9---7-7------|(x4)
A|-----------------10-7------------------10-7-|
E|--------------------------------------------|

Em
Cada blanco de mi mente
Se vuelve color con verte
Y el deseo de tenerte
G              A
Es mas fuerte, es mas fuerte
Em
Solo quiero que me lleves
De tu mano por la senda
Y atravesar el bosque
G           A
Que divide nuestras vidas
C           G           Am            C D
Hay tantas cosas que me gustan hoy de ti...

Chorus:
      G
Me enamora que me hables con tu boca
     D
Me enamora que me eleves hasta el cielo
     C                              G
Me enamora que de mi sea tu alma sonadora
     G    D7     Em
Esperanza de mis ojos
                           D
Sin ti mi vida no tiene sentido
                              C
Sin ti mi vida es como un remolino
                   D           C
De cenizas que se van oh oh oh oh
                     D
Volando con el viento...

E|------------------------------------------------|
B|-----5---5---5---5------------5---5---5---5-----|
G|---4---7---6---4-----6------4---7---6---4-----6-|
D|-------------------7------------------------7---|
A|------------------------------------------------|
E|------------------------------------------------|

E|------------------------------------------------|
B|------------------------------------------------|
G|------------4-7-6--6-4---4----------------------|
D|-----4-5-7-------------6---5-5-5-4--------------|
A|---7-------------------------------7------------|
E|------------------------------------------------|

E|------------------------------------------------|
B|--8b10r8----------------------------------------|
G|---------9-7-----------------------7------------|
D|-------------9-7-5-------5---5-7-9---9-7-5------|
A|-------------------7-5-7---7---------------7-5-7|
E|------------------------------------------------|

E|------------------------------------------------|
B|------------------------8---8-10-12-10-8-10-12--|
G|----------------7---7-9---9---------------------|
D|--------5---5-7---9-----------------------------|
A|--7-5-7---7-------------------------------------|
E|------------------------------------------------|

E|--10-----10-----10-----10-----10----15----12-15-|
B|-----/12----/12----/12----/12----------15-------|
G|------------------------------------------------|
D|------------------------------------------------|
A|------------------------------------------------|
E|------------------------------------------------|

E|-----12-15----12-15-17-15-12----12--------------|
B|--15-------15----------------15----15-12-15/17--|
G|------------------------------------------------|
D|------------------------------------------------|
A|------------------------------------------------|
E|------------------------------------------------|

E|------------------------------------------------|
B|--15-12----12---------------12-10-12-10---------|
G|--------14----14-12-9--9-12-------------9-12----|
D|------------------------------------------------|
A|------------------------------------------------|
E|------------------------------------------------|

E|------------------------------------------------|
B|--12-10-12-10-12-10-----------------------------|
G|--------------------9-12-9----------------------|
D|---------------------------9-7-9-7-5---5-7------|
A|-------------------------------------7----------|
E|------------------------------------------------|

E|------------------------------------------------|
B|------------------------------------------------|
G|--------7---7-7-9-9-12--------------------------|
D|--5-7-9---9-------------------------------------|
A|------------------------------------------------|
E|------------------------------------------------|

Em
Yo no se si te merezco

Solo se que aun deseo

Que le des luz a mi vida
G             A
En los dias venideros

Em
Leeme muy bien los labios

Te lo digo bien despacio

Por el resto de mis dias
G               A
Quiero ser tu compania
C           G           Am            C D
Hay tantas cosas que me gustan hoy de ti...

Chorus:
      G
Me enamora que me hables con tu boca
     D
Me enamora que me eleves hasta el cielo
     C                              G
Me enamora que de mi sea tu alma sonadora
     G    D7     Em
Esperanza de mis ojos
                           D
Sin ti mi vida no tiene sentido
                              C
Sin ti mi vida es como un remolino
                   D           C
De cenizas que se van oh oh oh oh  (x2)
                     D
Volando con el viento...

Тональность:

Отправитель: Moka

Это должно быть в ТОП-листе! - Топ-лист композиций



Назад
Рекомендуем посмотреть другие песни исполнителя «Juanes»:

  • Комменты Fb ()
  • Комменты ВК



Добавить в Избранное Браузера
Сохранить здесь Очистить


x

0


+
-

+
-

-

Авторизация





Зарегистрироваться

M

Дата и время

  • 21:48:27
     

Социальные ссылки


Наши приложения

  • Muzbank App Play Market
  • Muzbank Amazon App