MUZBANK


МУЗЫКАЛЬНО-ИНФОРМАЦИОННЫЙ БАНК





KKillswitch Engage • Fixation On The Darkness (аккорды и текст - chords & lyrics)


378

Print

Видео «Fixation On The Darkness (Killswitch Engage)»

Видео клипы к песне подбираются автоматически сайтом youtube. Возможны некоторые несоответствия клипов песне.

↑ Спрятать рекламу ↑






 


Tabbed By: Marchismo

/ - Slide up
 - Slide down
PM - Palm mute
h - Hammer on
p - Pull off
() - Pinch harmonic and vibrato


Tuning: C G C F A D


Intro
Guitar 1
|-------------------------------------------------------|
|-------------------------------------------------------|
|-------------------------------------------------------| x1
|-0-0---12--0---------------6-0----------------------6-|
|-0-0---12--0---------------6-0----------------------6-|
|-0-0---12--0---------------6-0----------------------6-|
             |----let ring--|  |-----let ring--------|
Guitar 2
|-------------------------------------------------------|
|-------------------------------------------------------|
|-------------------------------------------------------| x1
|-0-0---12------------------6------------------------6-|
|-0-0---12--5-3-5-5-5-3-6-6-6--5-3-5-5-5-3-6-6-9-6---6-|
|-0-0---12------------------6----------------------7-6-|
PM----|


Guitar 1
|--------------------------------|
|--------------------------------|
|--------------------------------| x4
|-0-0---0-0-0-0-0-0---0-0-0--4/6-|
|-0-0---0-0-0-0-0-0---0-0-0--4/6-|
|-0-0---0-0-0-0-0-0---0-0-0--4/6-|
PM- -   - - - - - -   - - -


Guitar 2 
|----------------------------------------------|
|----------------------------------------------|
|----------------------------------------------| 
|-----------------6------------------------6---|
|-5-3-5-5-5-3-6-6-6--5-3-5-5-5-3-6-6-9-6---6---| x4
|-----------------6----------------------7-6---|


Verse
Guitar 1
|---------------------------------------------------------|
|---------------------------------------------------------|
|---------------------------------------------------------| x2
|-0-0--0-1-0 

Тональность:

Это должно быть в ТОП-листе! - Топ-лист композиций



Назад
Рекомендуем посмотреть другие песни исполнителя «Killswitch Engage»:

  • Комменты Fb ()
  • Комменты ВК



Добавить в Избранное Браузера
Сохранить здесь Очистить


x

0


+
-

+
-

-

Авторизация





Зарегистрироваться

M

Дата и время

  • 08:57:14
     

Социальные ссылки


Наши приложения

  • Muzbank App Play Market
  • Muzbank Amazon App