MUZBANK


МУЗЫКАЛЬНО-ИНФОРМАЦИОННЫЙ БАНК





KKiss • 100000 Years (аккорды и текст - chords & lyrics)


563

Print

Видео «100000 Years (Kiss)»

Видео клипы к песне подбираются автоматически сайтом youtube. Возможны некоторые несоответствия клипов песне.

↑ Спрятать рекламу ↑






Rhythm Fig. 1

Gb|-------------------------------------------------------------|
Db|-------------------------------------------------------------|
Ab|-----7⁄----------------------7⁄------------------------------|
Eb|--0-----------------------0----------------------------0-----|



Gb|------------------------------------------------7------------|
Db|------------------------------------------7h-9-----9--7------|
Ab|--7-----7-----7-----7--5------7-----7--------------------10--|
Eb|-----0-----0-----0--------7------0-----0---------------------|
< - - - - - - 3x - - - - - >



Rhythm Fig. 2

Gb|--------9--9--------9--7-----------9--9--------7-------------|
Db|--------------------------9--------------7h-9-----9--7-------|
Ab|--7--7--------7--7-----------7--7-----------------------10---|
Eb|-------------------------------------------------------------|


Rhythm Fig. 3

Gb|--------9--9--------9--7-----------9--9--------9--7----------|
Db|--------------------------9--------------------------9-------|
Ab|--7--7--------7--7-----------7--7--------7--7----------------|
Eb|-------------------------------------------------------------|



Rhythm Fig. 4

Gb|--------9--9--------9--7-----9----7---------9----7-----------|
Db|--------------------------9--------------9-------------------|
Ab|--7--7--------7--7-------------------------------------------|
Eb|-------------------------------------------------------------|



Rhythm Fig. 5

Gb|--------9--9--------9--7-----------9-------------------------|
Db|--------------------------9--------------7----9--------------|
Ab|--7--7--------7--7-----------7--7-----7----------------------|
Eb|-------------------------------------------------------------|



Rhythm Fig. 6

Gb|--------9--9--------9--7-------------------------------------|
Db|--------------------------9--------7-----7--9p-7--5--7p-5----|
Ab|--7--7--------7--7-----------7--7-----7--------------------7-|
Eb|-------------------------------------------------------------|
Let ring


Rhythm Fig. 7

Gb|-------------------------------------------------------------|
Db|--5----------------------------------------------------------|
Ab|---------------0---------7-----------------------------------|
Eb|-------------------------------------------------------------|



Rhythm Fig. 8

Gb|-----9----7---------9----7-----------------------------------|
Db|--9--------------9-------------------------------------------|
Ab|-------------------------------------------------------------|
Eb|-------------------------------------------------------------|



Rhythm Fig. 9

Gb|-------------------------------------------------------------|
Db|-------------------------------------------------------------|
Ab|--7--------5--7----5--7----------------7--------5--7---------|
Eb|-------------------------------------------------------------|
< - - - - - 3x - - - - >


Rhythm Fig. 10

Gb|--------9--9--------9--7-----------9--9--------7-------------|
Db|--------------------------9--------------7h-9-----9--7-------|
Ab|--7--7--------7--7-----------7--7-----------------------7----|
Eb|-------------------------------------------------------------|



Gb|-------------------------------------------------------------|
Db|-------------------------------------------------------------|
Ab|--10----------------8----------------------------------------|
Eb|-------------------------------------------------------------|



Rhythm Fig. 11

Gb|-------------------------------------------------------------|
Db|-------------------------------------------------------------|
Ab|--7⁄---------------------------------------------------------|
Eb|-------------------------------------------------------------|



Rhythm Fig. 12

Gb|--9--7--9--9--7-----9--7--9--9--7-----9--7-------------------|
Db|-----------------9-----------------9--------9----------------|
Ab|-------------------------------------------------7-----------|
Eb|-------------------------------------------------------------|

Тональность:

Это должно быть в ТОП-листе! - Топ-лист композиций



Назад
Рекомендуем посмотреть другие песни исполнителя «Kiss»:

  • Комменты Fb ()
  • Комменты ВК



Добавить в Избранное Браузера
Сохранить здесь Очистить


x

0


+
-

+
-

-

Авторизация





Зарегистрироваться

M

Дата и время

  • 03:16:09
     

Социальные ссылки


Наши приложения

  • Muzbank App Play Market
  • Muzbank Amazon App