MUZBANK


МУЗЫКАЛЬНО-ИНФОРМАЦИОННЫЙ БАНК





KKiss • Any Way You Slice It (аккорды и текст - chords & lyrics)


432

Print

Видео «Any Way You Slice It (Kiss)»

Видео клипы к песне подбираются автоматически сайтом youtube. Возможны некоторые несоответствия клипов песне.

↑ Спрятать рекламу ↑





 

Album: asylum


------------------------------------------------------------------------------
------------------------------------------------------------------------------
-2--54--2--54--2--54--2/7--2--54--2--54--2--54--2--0--------------------
-2--54--2--54--2--54--2/7--2--54--2--54--2--54--2--0--------------------
-0----------------------------0-----------------------------------------------
------------------------------------------------------------------------------
                                                                              

------------------------------------------------------------------------------
------------------------------------------------------------------------------
-2--54--2--54--2--54--2/7--2-----------------------------------------------
-2--54--2--54--2--54--2/7--2----5^v----5^v----2----------------------------
-0----------------------------0--0------0-----0--2----------------------------
-------------------------------------------------0----------------------------
                                                                              

------------------------------------------------------------------------------
------------------------------------------------------------------------------
-2--54--2/7--2--54--2--0--2--54--2/7--2--54--2--0-------------------------
-2--54--2/7--2--54--2--0--2--54--2/7--2--54--2--0-------------------------
-0------------0-------------0------------0------------------------------------
------------------------------------------------------------------------------
                                                                              

------------------------------------------------------------------------------
------------------------------------------------------------------------------
-2--54--2/7--2---------------------------------------------------------------
-2--54--2/7--2----5^v----5^v-----2-------------------------------------------
-0------------0--0------0------0--2-------------------------------------------
----------------------------------0-------------------------------------------
                                                                              

------------------------------------------------------------------------------
------------------------------------------------------------------------------
----3--3--5--5-----3--3--10--10-----3--3--5--5-----3--3--10--10---------------
-5--3--3--5--5--5--3--3--10--10--5--3--3--5--5--5--3--3--10--10---------------
-5--1--1--3--3--5--1--1---8---8--5--1--1--3--3--5--1--1---8---8---------------
-3--------------3----------------3--------------3-----------------------------
                                                                              

------------------------------------------------------------------------------
--7--7--7--7--75-----/15--15--15--/15--15--15--/15--15--15-------------------
--7--7--7--7--75-----/14--14--14--/14--14--14--/14--14--14-------------------
--7--7--7--7--75--0----------------------------------------------------------
------------------------------------------------------------------------------
------------------------------------------------------------------------------
 

Тональность:

Это должно быть в ТОП-листе! - Топ-лист композиций



Назад
Рекомендуем посмотреть другие песни исполнителя «Kiss»:

  • Комменты Fb ()
  • Комменты ВК



Добавить в Избранное Браузера
Сохранить здесь Очистить


x

0


+
-

+
-

-

Авторизация





Зарегистрироваться

M

Дата и время

  • 18:15:02
     

Социальные ссылки


Наши приложения

  • Muzbank App Play Market
  • Muzbank Amazon App