MUZBANK


МУЗЫКАЛЬНО-ИНФОРМАЦИОННЫЙ БАНК





KKiss • Beth (аккорды и текст - chords & lyrics)


972

Print

Видео «Beth (Kiss)»

Видео клипы к песне подбираются автоматически сайтом youtube. Возможны некоторые несоответствия клипов песне.

↑ Спрятать рекламу ↑






INTRO:

E|-3--------3--------3-1-0---------------------------------1---|
B|-------1----1------------3-1-0-----1---1-----0---1---3-------|
G|----0----------0-----------------2---2---2-----0---0---0---0-|
D|-------------------------------3-----------3-----------------|
A|-3-----------------------------------------------------------|
E|-------------------------------------------------------------|

E|-3--------3------3--1--0--------------------------------3-|
B|-------1----1-------------3--1--0--------1-----1--------3-|
G|----0---------0-----------------------2-----2-----2-----0-|
D|-----------------------------------3-----------------3--0-|
A|-3------------------------------------------------------2-|
E|--------------------------------------------------------3-|

VERS:

C                  Dm          Cmaj7                 Am      G
Beth, I rear you callin? but I can?t come home right now,
F                   G              C                    E     E
Me and the boys are playin? and we just can?t find the sound.
Am                G            F                  Em
Just a few more hours and I?ll be right home to you.
Dm                 F     G     Am
Think I hear them callin?.  Oh Beth, what can I do?
F          G     C
Beth, what can I do?

C                   Dm              Cmaj7               Am   G
You say you feel so empty, that our house just ain?t a home
F                    G               C              E
I?m always somewhere else and you?re always there alone
Am                G            F                  Em
Just a few more hours and I?ll be right home to you.
Dm                 F     G     Am
Think I hear them callin?.  Oh Beth, what can I do?
F          G     C
Beth, what can I do?

C                    Dm           Cmaj7               Am     G
Beth, I know you?re lonely, and I hope you?ll be all right,
      F
cause me and the boys will be playin? all nighte.

SOLO:

E|------------------------------------8-10^-10^-10^-8-8-9-10-8-|
B|-----------5-------8---8-10^-8-8h10--------------------------|
G|---5---5-7^5-7-5-9---9---------------------------------------|
D|-7---5-------------------------------------------------------|
A|-------------------------------------------------------------|
E|-------------------------------------------------------------|

E|-9-10-8-9-10-|
B|-------------|
G|-------------|
D|-------------|
A|-------------|
E|-------------|

E|-10^-10^--8h10--p8-----8-------------------------------------|
B|--------------------10---8--8h10p8------------------8--8-10^-|
G|------------------------------------9-8-7-5-7^-5-7-9--9------|
D|-------------------------------------------------------------|
A|-------------------------------------------------------------|
E|-------------------------------------------------------------|

E|-8--9--10--8--9--10----10^--10-----8h10p8-----8-|
B|-------------------------------------------10---|
G|------------------------------------------------|
D|------------------------------------------------|
A|------------------------------------------------|
E|------------------------------------------------|

Тональность:

Это должно быть в ТОП-листе! - Топ-лист композиций



Назад
Рекомендуем посмотреть другие песни исполнителя «Kiss»:

  • Комменты Fb ()
  • Комменты ВК



Добавить в Избранное Браузера
Сохранить здесь Очистить


x

0


+
-

+
-

-

Авторизация





Зарегистрироваться

M

Дата и время

  • 09:15:11
     

Социальные ссылки


Наши приложения

  • Muzbank App Play Market
  • Muzbank Amazon App