MUZBANK


МУЗЫКАЛЬНО-ИНФОРМАЦИОННЫЙ БАНК





KKiss • Beth (аккорды и текст - chords & lyrics)


347

Print

Видео «Beth (Kiss)»

Видео клипы к песне подбираются автоматически сайтом youtube. Возможны некоторые несоответствия клипов песне.

↑ Спрятать рекламу ↑






 


INTRO:

|--3--------3--------3--1--0----------------------------------------------------1-----|
|--------1----1---------------3--1--0---------1-----1---------0-----1-----3-----------|
|-----0----------0-------------------------2-----2-----2---------0-----0-----0-----0--|
----------------------------3-----------------3---------------------------|
|--3----------------------------------------------------------------------------------|
--------------------------------------------------------------------------|

|--3--------3------3--1--0---------------------------------3--|
|--------1----1-------------3--1--0--------1-----1---------3--|
|-----0---------0-----------------------2-----2-----2------0--|
-------------------------3-----------------3---0--|
|--3-------------------------------------------------------2--|
-----------------------------------------------3--|

VERS:
 
C                  Dm          Cmaj7                 Am      G 
Beth, I rear you callin 

Тональность:

Это должно быть в ТОП-листе! - Топ-лист композиций



Назад
Рекомендуем посмотреть другие песни исполнителя «Kiss»:

  • Комменты Fb ()
  • Комменты ВК



Добавить в Избранное Браузера
Сохранить здесь Очистить


x

0


+
-

+
-

-

Авторизация





Зарегистрироваться

M

Дата и время

  • 12:53:52
     

Социальные ссылки


Наши приложения

  • Muzbank App Play Market
  • Muzbank Amazon App