MUZBANK


МУЗЫКАЛЬНО-ИНФОРМАЦИОННЫЙ БАНК





KKiss • Calling Dr Love (аккорды и текст - chords & lyrics)


397

Print

Видео «Calling Dr Love (Kiss)»

Видео клипы к песне подбираются автоматически сайтом youtube. Возможны некоторые несоответствия клипов песне.

↑ Спрятать рекламу ↑






Rhythm Fig. 1

Gb|------------------------------------------------|
Db|------------------------------------------------|
Ab|---------------------5--------0-----------------|
Eb|--0--------3------------------------------------|



Gb|------------------------------------------------|
Db|------------------------------------------------|
Ab|---------------------5--------0----0------------|
Eb|--0--------3--------------------------3---------|



Rhythm Fig. 2

Gb|------------------------------------------------|
Db|---------------2--------------------------------|
Ab|------------------------------------------------|
Eb|--0---------------0---3------------3--0---------|



Gb|------------------------------------------------|
Db|------------------------------------------------|
Ab|--5------------5--3---0------------0------------|
Eb|--------------------------------------3---------|




Rhythm Fig. 3

Gb|------------------------------------------------|
Db|------------------------------------------------|
Ab|-----------------------------------2--3---------|
Eb|--0------------3--0---3-------------------------|



Gb|------------------------------------------------|
Db|--5---------------------------------------------|
Ab|-----------5--------3-3--3-3--3-3--3---5--5-----|
Eb|------------------------------------------------|




Rhythm Fig. 4

Gb|------------------------------------------------|
Db|------------------------------------------------|
Ab|--5h-7------------7--5-----5--------------------|
Eb|--------0------0--------------7----5--3--0------|



Gb|------------------------------------------------|
Db|------------------------------------------------|
Ab|--7⁄-------------7--5-----5---------------------|
Eb|-------0------0--------------7----5--3--0-------|



Gb|------------------------------------------------|
Db|------------------------------------------------|
Ab|--7⁄-------------7--------------5---------------|
Eb|-------0------0-----8-----7--5-------7--5-------|







Rhythm Fig. 5

Gb|------------------------------------------------|
Db|------------------------------------------------|
Ab|--7------------7--------------------------------|
Eb|------------------0---3------------3--0---------|



Gb|------------------------------------------------|
Db|------------------------------------------------|
Ab|--5------------5--3---0------------0------------|
Eb|--------------------------------------3---------|




Rhythm Fig. 6

Gb|------------------------------------------------|
Db|------------------------------------------------|
Ab|-----------------------------------2--3---------|
Eb|--0------------0--2---3-------------------------|



Gb|------------------------------------------------|
Db|------------------------------------------------|
Ab|--5------------5--3---0------------0------------|
Eb|--------------------------------------3---------|




Rhythm Fig. 7

Gb|------------------------------------------------|
Db|------------------------------------------------|
Ab|------------------------------------------2--3--|
Eb|--0----0--0--0--0--0--2--3----3--3--3--3--------|



Gb|------------------------------------------------|
Db|------------------------------------------------|
Ab|--5----5--5--5--5--3--2--0----0--0--0--0--0-----|
Eb|---------------------------------------------3--|




Rhythm Fig. 8

Gb|------------------------------------------------|
Db|------------------------------------------------|
Ab|------------------------------------------2--3--|
Eb|--0----0--0--0--0--0--2--3----3--3--3--3--------|




Gb|------------------------------------------------|
Db|--5---------------------------------------------|
Ab|-----------5---------3-3--3-3--3-3--3---5--5----|
Eb|------------------------------------------------|



Rhythm Fig. 9

Gb|------------------------------------------------|
Db|------------------------------------------------|
Ab|--7~--------------------------------------------|
Eb|------------------------------------------------|



Rhythm Fig. 10

Gb|------------------------------------------------|
Db|------------------------------------------------|
Ab|---------------------------------14⁄------------|
Eb|--0---------------------------------------------|

Тональность:

Это должно быть в ТОП-листе! - Топ-лист композиций



Назад
Рекомендуем посмотреть другие песни исполнителя «Kiss»:

  • Комменты Fb ()
  • Комменты ВК



Добавить в Избранное Браузера
Сохранить здесь Очистить


x

0


+
-

+
-

-

Авторизация





Зарегистрироваться

M

Дата и время

  • 07:33:44
     

Социальные ссылки


Наши приложения

  • Muzbank App Play Market
  • Muzbank Amazon App