MUZBANK


МУЗЫКАЛЬНО-ИНФОРМАЦИОННЫЙ БАНК





KKiss • Cold Gin (аккорды и текст - chords & lyrics)


432

Print

Видео «Cold Gin (Kiss)»

Видео клипы к песне подбираются автоматически сайтом youtube. Возможны некоторые несоответствия клипов песне.

↑ Спрятать рекламу ↑





Rhythm Fig. 1

Gb|------------------------------------------14⁄---|
Db|---------------------------------------7/-------|
Ab|------------------------------------------------|
Eb|------------------------------------------------|



Gb|------------------------------------------------|
Db|------------------------------------------------|
Ab|------------------------------------------------|
Eb|--5---------------------------------------------|



Gb|---------------------5--------------------------|
Db|------------------------7----5------------------|
Ab|--------------------------------7--5--3---------|
Eb|--5---------------------------------------------|



Rhythm Fig. 2

Gb|------------------------------------------------|
Db|------------------------------------------------|
Ab|------------------------------------------------|
Eb|--5--5--5--5--5--5--5--5--5--5--5--5--5---------|




Rhythm Fig. 3

Gb|------------------------------------------------|
Db|------------------------------------------------|
Ab|--3---------------------------------------------|
Eb|-----5--3--5----5----5--3--0--3--5--5-----------|




Rhythm Fig. 4

Gb|------------------------------------------------|
Db|------------------------------------------------|
Ab|------------------------------------------------|
Eb|--5--5----------------5--5----------------------|



Gb|------------------------------------------------|
Db|------------------------------------------------|
Ab|--3---------------------------------------------|
Eb|-----5--3--5----5----5--3--0--3--5--5-----------|




Rhythm Fig. 5

Gb|------------------------------------------------|
Db|---------------------------------5--------------|
Ab|--7--7⁄---------------7--7⁄--(7)----5-----------|
Eb|------------------------------------------------|



Gb|------------------------------------------------|
Db|------------------------------------------------|
Ab|--7--7------------------------------------------|
Eb|------------------------2------3----4-----------|



Rhythm Fig. 6

Gb|------------------------------------------------|
Db|------------------------------------------------|
Ab|--3---------------------------------------------|
Eb|-----5--3--5----5----5--3--0--3--5--3------/15⁄-|




Rhythm Fig. 7

Gb|------------------------------------------------|
Db|------------------------------------------------|
Ab|------------3--3------3--3-2-3-2---3--3-2-3-----|
Eb|--3--3--------------------------------------1---|



Gb|------------------------------------------------|
Db|------------------------------------------------|
Ab|------------3--3--------3-----------------------|
Eb|--3--3------------------------------------1-1---|



Gb|------------------------------------------------|
Db|------------------------------------------------|
Ab|------------3--3------3--3-2-3-2---3--3-2-3-----|
Eb|--3--3--------------------------------------1---|



Gb|------------------------------------------------|
Db|------------------------------------------------|
Ab|------------3--3--------3-----------------------|
Eb|--3--3------------------------------------3-3---|



Gb|---------------------7--7-6-7-6---7--7-6-7------|
Db|-------------------------------------------5----|
Ab|------------5--5--------------------------------|
Eb|--5--5------------------------------------------|



Gb|------------------------------------------------|
Db|--7--7⁄-----------------------------------------|
Ab|------------5--5--------5-----------------------|
Eb|------------------------------------------3-3---|



Gb|----------------------7--7-6-7-6---7--7-6-7-----|
Db|--------------------------------------------5---|
Ab|------------5--5--------------------------------|
Eb|--5--5------------------------------------------|



Gb|------------------------------------------------|
Db|--7--7⁄-----------------------------------------|
Ab|------------5--5--------5-4-5-4-5-4-5-4---------|
Eb|------------------------------------------------|



Rhythm Fig. 8

Gb|------------------------------------------------|
Db|------------------------------------------------|
Ab|--7--7----------------7------5------4-----------|
Eb|------------------------------------------------|



Gb|------------------------------------------------|
Db|------------------------------------------------|
Ab|------------------------------------------------|
Eb|--5---------------------------------------------|



Rhythm Fig. 9

Gb|--5---------------------------------------------|
Db|-----7--5--7----5-------------------------------|
Ab|-------------------7--5----3-----------3--5--7--|
Eb|------------------------------5--3--5-----------|



Gb|--5---------------------------------------------|
Db|-----7--5--7----5-------------------------------|
Ab|-------------------7--5----3--------------------|
Eb|------------------------------5--3--5-----------|



Gb|------------------------------------------------|
Db|------------------------------------------------|
Ab|------------------------------------------------|
Eb|--5⁄--------------------------------------------|

Тональность:

Это должно быть в ТОП-листе! - Топ-лист композиций



Назад
Рекомендуем посмотреть другие песни исполнителя «Kiss»:

  • Комменты Fb ()
  • Комменты ВК



Добавить в Избранное Браузера
Сохранить здесь Очистить


x

0


+
-

+
-

-

Авторизация





Зарегистрироваться

M

Дата и время

  • 02:28:35
     

Социальные ссылки


Наши приложения

  • Muzbank App Play Market
  • Muzbank Amazon App