MUZBANK


МУЗЫКАЛЬНО-ИНФОРМАЦИОННЫЙ БАНК





KKiss • Comin Home (аккорды и текст - chords & lyrics)


360

Print

Видео «Comin Home (Kiss)»

Видео клипы к песне подбираются автоматически сайтом youtube. Возможны некоторые несоответствия клипов песне.

↑ Спрятать рекламу ↑






 


Intro: 

    G                    C        C" D
|---3-3-3-3-3-3-3-3----|-0--0--0--3--2--2--2--2--2-|
|---3-3-3-3-3-3-3-3----|-1--1--1--1--3--3--3--3--3-|
|---0-0-0-0-0-0-0-0----|-0--0--0--0--2--2--2--2--2-|
|---0-0-0-0-0-0-0-0----|-2--2--2--2----------------|
|---2-2-2-2-2-2-2-2----|-3--3--3--3----------------|
|---3-3-3-3-3-3-3-3--------------------|
                               

CHORUS TAB:
     G
|--------3-------3-----|-----3---------3---------|
|-o----3---3---3---3---|---3---3-----3---3-------|
-------------------------|
|-o--------------------0-------------|
-------------------------|
|----3-------2---------|-0-----------------------|
  
     C         C"  D
---3---2---|--2-2-2-2-2-2-3----------|   
|----1-1-1-1---1---3---|--3-3-3-3-3-3-3----------|
-------2---|--2-2-2-2-2-2-2----------|
|----2-2-2-2---2---------------------|
|----3-3-3-3---3---------------------|
-------------------------|
                      I 

Тональность:

Это должно быть в ТОП-листе! - Топ-лист композиций



Назад
Рекомендуем посмотреть другие песни исполнителя «Kiss»:

  • Комменты Fb ()
  • Комменты ВК



Добавить в Избранное Браузера
Сохранить здесь Очистить


x

0


+
-

+
-

-

Авторизация





Зарегистрироваться

M

Дата и время

  • 12:22:45
     

Социальные ссылки


Наши приложения

  • Muzbank App Play Market
  • Muzbank Amazon App