MUZBANK


МУЗЫКАЛЬНО-ИНФОРМАЦИОННЫЙ БАНК





KKiss • God Of Thunder (аккорды и текст - chords & lyrics)


419

Print

Видео «God Of Thunder (Kiss)»

Видео клипы к песне подбираются автоматически сайтом youtube. Возможны некоторые несоответствия клипов песне.

↑ Спрятать рекламу ↑






 


Rhythm Fig. 1

Eb-----------------------------------------|
Bb-----------------------------------------|
Gb-----------------------------------------|
Db-----------------------------5~----------|
Ab|---------7-----5--7~--------7-----5--7--------------|
Eb|---0-0------7---------0-0------7--------------------|


   end. 1
Eb-----------------------------------------|
Bb-----------------------------------------|
Gb-----------------------------------------|
Db----------5~-----5--7--7b^-r7--5--7~-----|
Ab|---------7-----5--7~------7-------------------------|
Eb|---0-0------7---------------------------------------|


   end. 2
Eb-----------------------------------------|
Bb-----------------------------------------|
Gb----------5~-----5--7--7b^-r7--5--7~-----|
Db----------5~-----5--7--7b^-r7--5--7~-----|
Ab|---------7-----5--7~------7-------------------------|
Eb|---0-0------7---------------------------------------|


   end. 3
Eb-----------------------------------------|
Bb-----------------------------------------|
Gb-----------------------------------------|
Db-----------------------------------------|
Ab|---------7-----5--7~--------7-----5h^7-7-7-5h^7-7-7-|
Eb|---0-0------7---------0-0------7--------------------|


   end. 4
Eb-----------------------------------------|
Bb-----------------------------------------|
Gb-------------------------------------9-9-|
Db----------5~-----5--7--7b^-r7--5--7~-9-9-|
Ab|---------7-----5--7~------7---------------------7-7-|
Eb|---0-0------7-----------------------------------0-0-|


Rhythm Fig. 2

Eb-----------------------------------------|
Bb-----------------------------------------|
Gb|--5-5---------7-7---9-----5----9----2-2-2-2-2--4----|
Db|--5-5---5-5---7-7---9-----5----9----2-2-2-2-2--4----|
Ab|--3-3---5-5---5-5---7-----3----7----0-0-0-0-0--2----|
Eb|--------3-3---------0-------------------------------|


Eb-----------------------------------------|
Bb-----------------------------------------|
Gb|--5-5---------7-7--9-----5-4-5-4-5-----7-7-7-7-7-7-7|
Db|--5-5---5-5---7-7--9-----5-4-5-4-5--5--7-7-7-7-7-7-7|
Ab|--3-3---5-5---5-5--7-----3-2-3-2-3--5--5-5-5-5-5-5-5|
Eb|--------3-3--------0----------------3---------------|


Solo

Eb-----------------------------------------|
Bb-----------------------------------------|
Gb-----------4b~~----7b--7b--7b-r7---------|
Db|-----8~----9~--------------------------------9------|
Ab------------------------------------10~--|
Eb|-----6~----7~---------------------------------------|
              


Eb-----------------------------------------|
Bb|--15b--15b--15b-r15--12--15-15b~--15p^12------------|
Gb-------------------------------14p^12/11~|
Db-----------------------------------------|
Ab-----------------------------------------|
Eb-----------------------------------------|


Eb-----------------------------------------|
Bb|------12-15p^12-----12-----12------12-15p^12--------|
Gb|--14b------------14b----14b----14b------------------|
Db-----------------------------------------|
Ab-----------------------------------------|
Eb-----------------------------------------|


Eb-----------------------------15b-15------|
Bb|------12------12------12-15p^12-----12--------------|
Gb|--14b----14b------14b-----------14b-----------------|
Db-----------------------------------------|
Ab-----------------------------------------|
Eb-----------------------------------------|


Eb|-12h^15p^12-----------------------------------------|
Bb--15-15b-15b~----------------------------|
Gb-----------------------------------------|
Db-----------------------------------------|
Ab-----------------------------------------|
Eb-----------------------------------------|



GOD OF THUNDER - Paul Stanley

[Rhythm Fig. 1 w/end.1] w/ [Rhythm Fig. 1 w/end.2] (2x)
[Rhythm Fig. 1 w/end.3]

[Rhythm Fig. 1 w/end.1] w/ [Rhythm Fig. 1 w/end.2] 
[Rhythm Fig. 1 w/end.3]
You 

Тональность:

Это должно быть в ТОП-листе! - Топ-лист композиций



Назад
Рекомендуем посмотреть другие песни исполнителя «Kiss»:

  • Комменты Fb ()
  • Комменты ВК



Добавить в Избранное Браузера
Сохранить здесь Очистить


x

0


+
-

+
-

-

Авторизация





Зарегистрироваться

M

Дата и время

  • 09:19:29
     

Социальные ссылки


Наши приложения

  • Muzbank App Play Market
  • Muzbank Amazon App