MUZBANK


МУЗЫКАЛЬНО-ИНФОРМАЦИОННЫЙ БАНК





KKiss • Got To Choose (аккорды и текст - chords & lyrics)


516

Print

Видео «Got To Choose (Kiss)»

Видео клипы к песне подбираются автоматически сайтом youtube. Возможны некоторые несоответствия клипов песне.

↑ Спрятать рекламу ↑






Tune down 1/2 step

Intro

E|---------------------------------------|
B|---------------------------------------|
G|-9--5--7-------------7--7---9--9--5--7-|
D|-9--5--7-------------7--7---9--9--5--7-|
A|-7--3--5--5-5-5-5-5--5--7 --7--7--3--5-|
E|---------------------------------------|

E|-----------------|
B|-----------------|
G|------------7--7-|
D|------------7--7-|
A|-5-5-5-5-5--5----|
E|-----------------|

fill on intro

E|-----------|
B|--15----15-|
G|--17b--17b-|
D|-----------|
A|-----------|
E|-----------|

main riff/verse

E|----------------------------------|
B|----------------------------------|
G|-7--7--2--4--5--------------------|
D|-7--7--2--4--5--5--5--5----5-5--5-|
A|-5--5--0--2--3--5--5--5----5-5--5-|
E|----------------3--3--3----3-3--3-|

chorus

E|------------------------------|
B|------------------------------|
G|-3--3--------------------5--5-|
D|-3--3--------------------5--5-|
A|-1--1--0h2h3p2p0---------3--3-|
E|------------------------------|

E|------------------------|
B|------------------------|
G|-------------------5--5-|
D|-------------------5--5-|
A|-0h2h3p2p0---------3--3-|
E|------------------------|

E|---------------------|
B|---------------------|
G|-------------------7-|
D|-------------------7-|
A|-0h2h3p2p0---------5-|
E|---------------------|

E|----------------------|
B|----------------------|
G|----------------------|
D|----------------------|
A|-0h4h5p4p0--0h2h3p2p0-|
E|----------------------|

outro

E|--------------------------|
B|--------------------------|
G|-7--7--2--4--5----2--4--5-|
D|-7--7--2--4--5----2--4--5-|
A|-5--5--0--2--3----0--2--3-|
E|--------------------------|

E|-------------------------------|
B|-------------------------------|
G|-2--4--5---5--5--5--5--5--5--7-|
D|-2--4--5---5--5--5--5--5--5--7-|
A|-0--2--3---3--3--3--3--3--3--5-|
E|-------------------------------|

Lirics:

Baby, you know I heard the neighbors say
Baby, you might be leavin? me today
Oh yeah, mmm, someone?s come along and shared your time
Don?t care, no I don?t, no
But you can?t be his and still be mine, so

Chorus:

Ooh, got to choose who?s your baby
Ooh, got to choose

Sometimes, oh sometimes, I know you need a change of pace
Oh yeah, but I ain?t gonna run no race
Baby, you?ve got to tell me yes or no
Alright, alright, come on and tell me
Tell me if you?re gonna go, come on

Ooh, got to choose who?s your baby
Ooh, got to choose who?s your baby

Ooh, got to choose who?s your baby
Ooh, got to choose, got to choose

Who?s your baby, who?s your baby
Who?s your baby, who?s your baby

Тональность:

Это должно быть в ТОП-листе! - Топ-лист композиций



Назад
Рекомендуем посмотреть другие песни исполнителя «Kiss»:

  • Комменты Fb ()
  • Комменты ВК



Добавить в Избранное Браузера
Сохранить здесь Очистить


x

0


+
-

+
-

-

Авторизация





Зарегистрироваться

M

Дата и время

  • 11:46:20
     

Социальные ссылки


Наши приложения

  • Muzbank App Play Market
  • Muzbank Amazon App