MUZBANK


МУЗЫКАЛЬНО-ИНФОРМАЦИОННЫЙ БАНК





KKiss • Got To Choose (аккорды и текст - chords & lyrics)


315

Print

Видео «Got To Choose (Kiss)»

Видео клипы к песне подбираются автоматически сайтом youtube. Возможны некоторые несоответствия клипов песне.

↑ Спрятать рекламу ↑






 


From album "Hotter Than Hell"(1974)

Tune down 1/2 step

Intro

----------------------------------
---------------------------------
-9--5--7-------------7--7---9--9--5--7----
-9--5--7-------------7--7---9--9--5--7----
-7--3--5--5-5-5-5-5--5--7 --7--7--3--5----
---------------------------------

------------------------------
-------------------------------
------------7--7--------------
------------7--7-------------
-5-5-5-5-5--5-------------
-------------------------------

fill on intro

---------------------------------
--15----15----------------------
--17b--17b------------------
---------------------------------
---------------------------------
---------------------------------

main riff/verse

---------------------------------
---------------------------------
-7--7--2--4--5------------------------
-7--7--2--4--5--5--5--5----5-5--5----
-5--5--0--2--3--5--5--5----5-5--5----
----------------3--3--3----3-3--3---

chorus

---------------------------------
---------------------------------
-3--3--------------------5--5--------
-3--3--------------------5--5--------
-1--1--0h2h3p2p0---------3--3--------
---------------------------------

---------------------------------
---------------------------------
-------------------5--5------------
-------------------5--5------------
-0h2h3p2p0---------3--3-------------
---------------------------------

---------------------------------
---------------------------------
-------------------7--------------
-------------------7--------------
-0h2h3p2p0---------5---------------
---------------------------------

---------------------------------
---------------------------------
---------------------------------
---------------------------------
-0h4h5p4p0--0h2h3p2p0----
---------------------------------

outro

---------------------------------
---------------------------------
-7--7--2--4--5----2--4--5-------
-7--7--2--4--5----2--4--5------
-5--5--0--2--3----0--2--3-------
---------------------------------

---------------------------------
---------------------------------
-2--4--5---5--5--5--5--5--5--7----
-2--4--5---5--5--5--5--5--5--7-----
-0--2--3---3--3--3--3--3--3--5-----
---------------------------------


Lirics:



Baby, you know I heard the neighbors say 
Baby, you might be leavin 

Тональность:

Это должно быть в ТОП-листе! - Топ-лист композиций



Назад
Рекомендуем посмотреть другие песни исполнителя «Kiss»:

  • Комменты Fb ()
  • Комменты ВК



Добавить в Избранное Браузера
Сохранить здесь Очистить


x

0


+
-

+
-

-

Авторизация





Зарегистрироваться

M

Дата и время

  • 01:20:33
     

Социальные ссылки


Наши приложения

  • Muzbank App Play Market
  • Muzbank Amazon App