MUZBANK


МУЗЫКАЛЬНО-ИНФОРМАЦИОННЫЙ БАНК





KKiss • Hard Luck Woman (аккорды и текст - chords & lyrics)


1206

Print

Видео «Hard Luck Woman (Kiss)»

Видео клипы к песне подбираются автоматически сайтом youtube. Возможны некоторые несоответствия клипов песне.

↑ Спрятать рекламу ↑






4/4 time Dm slide up/down C7
--------------|--------1--1/3--|--3⁄1--1----------------|-----------------------
--------------|--------3--3-5--|--5-3--3----------------|-----1--1----1---------
--------------|--------2--2-4--|--4-2--2----------------|-----0--0h2--0---------
---------0h2--|--0-----0-------|-------------------0h2--|-----2----------2------
---0--3-------|----------------|-------------0--3-------|--3--------------------
3-------------|----------------|----------3-------------|-----------------------

C
C7 Dm E F7 G7
---|-----0----------------|-----1--1-----0--0--|-----1--1-----3--3--|--0--------
---|-----1----------------|-----3--2-----0--0--|-----1--1-----3--3--|--1--------
---|-----0----------------|-----2--3-----0--0--|-----2--2-----4--4--|--0--------
0--|--2--2-----------0h2--|--0--------2--------|--3--------5--------|--2--------
---|--3--3-----0--3-------|--------------------|--------------------|--3--------
---|--------3-------------|--------------------|--------------------|-----------



--------12h13p12--------------12------|-----------------------------------------
----13------------13------13------13--|-----------------------------------------
12--------------------12--------------|-----------------------------------------
--------------------------------------|-----------------------------------------
--------------------------------------|-----------------------------------------
--------------------------------------|-----------------------------------------


If ever I'd met you if ever i'd seen you cry
----------|------1-----1/3--|--3⁄1--1---------------|---0-----------------------
----------|------3-----3-5--|--5-3--3---------------|---1--------1--1----1------
----------|------2-----2-4--|--4-2--2---------------|---0--------0--0h2--0------
----------|------0----------|-----------------------|---2--------2--------------
----------|-----------------|-----------------------|---3-----------------------
----------|-----------------|-----------------------|---------------------------


If not for first
------|--0-----------------|------1--1-----0--0--|-----1--1-----3--3--|--0------
------|--1-----------------|------3--2-----0--0--|-----1--1-----3--3--|--1------
------|--0-----------------|------2--3-----0--0--|-----2--2-----4--4--|--0------
2--0--|--2------------0h2--|---0--------2--------|--3--------5--------|--2------
------|--3------0--3-------|---------------------|--------------------|--3------
------|------3-------------|---------------------|--------------------|---------


I keep tellin' you hard luck woman you'll be a hard luck
-------------------|---1------0------1-----|------------------|---1------0------
-------------------|---1------0------3-----|------------------|---1------0------
-------------------|---2------0------2-----|------------------|---2------0------
-------------------|---3------2------0-----|------------------|---3------2------
-------------------|-----------------------|------------------|-----------------
-------------------|-----------------------|------------------|-----------------






woman you'll be a hard luck woman baby 'til you
----1-----|------------------|---1------0------1--------|---1-------------------
----3-----|------------------|---1------0------3--------|---1-------------------
----2-----|------------------|---2------0------2--------|---2-------------------
----0-----|------------------|---3------2------0--------|---3-------------------
----------|------------------|--------------------------|---3-------------------
----------|------------------|--------------------------|---1-------------------


find your man
-3--------|---0-----------------------------------------------------------------
-3--------|---1-----------------------------------------------------------------
-4--------|---0-----------------------------------------------------------------
-5--------|---2-----------------------------------------------------------------
-5--------|---3-----------------------------------------------------------------
-3--------|---------------------------------------------------------------------


You wanted the best and you got it...
The hottest band in the land...

Тональность:

Это должно быть в ТОП-листе! - Топ-лист композиций



Назад
Рекомендуем посмотреть другие песни исполнителя «Kiss»:

  • Комменты Fb ()
  • Комменты ВК



Добавить в Избранное Браузера
Сохранить здесь Очистить


x

0


+
-

+
-

-

Авторизация





Зарегистрироваться

M

Дата и время

  • 10:08:01
     

Социальные ссылки


Наши приложения

  • Muzbank App Play Market
  • Muzbank Amazon App