MUZBANK


МУЗЫКАЛЬНО-ИНФОРМАЦИОННЫЙ БАНК





KKiss • Hotter Than Hell (аккорды и текст - chords & lyrics)


337

Print

Видео «Hotter Than Hell (Kiss)»

Видео клипы к песне подбираются автоматически сайтом youtube. Возможны некоторые несоответствия клипов песне.

↑ Спрятать рекламу ↑






 


Original version on the album Hotter Than Hell (1974)
Words and music by Paul Stanley


Beginning (Riff 1)

--------------------------------|
|-o-------------|--3--3---------------------------------|
|----2--2-------|--2--2-----------2h5p2p0--|--2--2------------------|
|-o--2--2-------|--0--0-------2h5----------|--2--2-----5h7--7-7-7--|
|----0--0----------------------|--0--0------------------|
--------------------------------|

|--------3------------------|
|--3--3--3----------------o-|
|--2--2--0-------2h5p2p0----|
|--0--0--0---2h5----------o-|
----------------|
----------------|

Verse

-------------------|
----|--3--3------------|--3--3-------------|
|----2--2-------|--2--2---------|--2--2--------|--2--2-------------|
|----2--2-------|--0--0---------|--2--2--------|--0--0-------------|
|----0--0-----------|--0--0----------------|
-------------------|
    She looked      hotter         all dressed
    good, she         than           in satins
    looked ...          hell...             and lace . . .

----------------|
----|--3--3-----------------|
|----2--2-------|--2--2-----------|--2--------------|
|----2--2-------|--0--0-----------|--2--------------|
|----0--0-------------|--0--------------|
----------------|
   I looked at         much too          I had to get
     her and it was...      clear...        on the case . . .

   
|--------3------------------|
|--3--3--3------------------|
|--2--2--0-------2h5p2p0----|
|--0--0--0---2h5------------|
----------------|
----------------|


     
-----------|
----|--3--3------------|
|----2--2-------|--2--2---------|--2--2--------|
|----2--2-------|--0--0---------|--2--2--------|
|----0--0-----------|--0--0--------|
-----------|
   I said Lady     take ya home?   There 

Тональность:

Это должно быть в ТОП-листе! - Топ-лист композиций



Назад
Рекомендуем посмотреть другие песни исполнителя «Kiss»:

  • Комменты Fb ()
  • Комменты ВК



Добавить в Избранное Браузера
Сохранить здесь Очистить


x

0


+
-

+
-

-

Авторизация





Зарегистрироваться

M

Дата и время

  • 07:26:32
     

Социальные ссылки


Наши приложения

  • Muzbank App Play Market
  • Muzbank Amazon App