MUZBANK


МУЗЫКАЛЬНО-ИНФОРМАЦИОННЫЙ БАНК





KKiss • I Was Made For Lovin You (аккорды и текст - chords & lyrics)


421

Print

Видео «I Was Made For Lovin You (Kiss)»

Видео клипы к песне подбираются автоматически сайтом youtube. Возможны некоторые несоответствия клипов песне.

↑ Спрятать рекламу ↑






 


Intro

E-----------------------------------------|
B-----------------------------------------|
G----------------------14-12--14-14-12----|
D----------------------14-14--14-14-14----|
A-----------------------------------------|
E|-0-0-0-0-0-0-0-0-0-0-0-0-0-0-0-0--------------------|
   dm.............................


E-----------------------------------------|
B-----------------------------------------|
G|--7-5---9-9--7--------------------------------------|
D|--7-7---9-9--7--------------------------------------|
A|--------7-7--5--------------------------------------|
E-----------------------------------------|





E-----------------------------------------|
B-----------------------------------------|
G|--14-12--14-14-12-----7-5---9-9--7------------------|
D|--14-14--14-14-14-----7-7---9-9--7------------------|
A-----------------7-7--5------------------|
E-----------------------------------------|


E-----------------------------------------|
B|---8---------12-----------4-------------------------|
G|---9---------12-----------4---------4---------------|
D|---9---------12-----------4---------2---------------|
A|---7---------10-----------2---------2---------------|
E|---0--------------------------------0---------------|


E-----------------------------------------|
B|---8---------12-----------4-------------------------|
G|---9---------12-----------4----6-----6----6----6----|
D|---9---------12-----------4------7-----7----7----7--|
A|---7---------10-----------2---0----0-----0----0----0|
E|---0------------------------------------------------|

E-----------------------------------------|
B-----------------------------------------|
G-----------------------------------------|
D-----------------------------------------|
A-----------------------------------------|
E|-/12-----------------------------------------------|




E|--5--7---10-------------------5--7---10-------------|
B|--5--5---7---7--7---9----7----5--5---7---7--7---9---|
G|--5--5---7---7--7---9----7----5--5---7---7--7---9---|
D|--7------7---7--7---9----7----7------7---7--7---9---|
A-----------------------------------------|
E-----------------------------------------|

E|------5--7------------------------------------------|
B|-7----5--5------------------------------------------|
G|-7----5--5---7-7-7-7-7/-x---2--4-4-4-4-4-4-4-4-4-4-4|
D|-7----7------7-7-7-7-7/-x---2--4-4-4-4-4-4-4-4-4-4-4|
A--5-5-5-5-5/-x---0--2-2-2-2-2-2-2-2-2-2-2|
E-----------------------------------------|

E-----------------------------------------|
B-----------------------------------------|
G|-4-4------------------------------------------------|
D|-4-4------------------------------------------------|
A|-2-2--------x-7/------------------------------------|
E-----------------------------------------|




E-----------------------------------------|
B-----------------------------------------|
G-----------------------------------------|
D-----------------------------------------|
A-----------------------------------------|
E|--------0-0-0-0-0-0-0-0-0-0-0-0-0-0-0-0--5-5-5-5-5-5|
          

E-----------------------------------------|
B-----------------------------------------|
G-----------------------------------------|
D-----------------------------------------|
A-----------------------------------------|
E|-5-5-5-5-5-5-5-5-5-5-0-0-0-0-0-0-0--2-2-2-2-3-3-3-3-|

E-----------------------------------------|
B-----------------------------------------|
G-----------------------------------------|
D-----------------------------------------|
A-----------------------------------------|
E|-3-5-5-5-------------------------------------------|



E-----------------------------------------|
B-----------------------------------------|
G-----------------------------------------|
D-----------------------------------------|
A-----------------------------------------|
E|--------0-0-0-0-0-0-0-0-0-0-0-0-0-0-0-0--5-5-5-5-5-5|
          

E-----------------------------------------|
B-----------------------------------------|
G-----------------------------------------|
D-------------------------4-4-4-4-5-5-5-5-|
A-----------------------------------------|
E|-5-5-5-5-5-5-5-5-5-5-0-0-0-0-0-0-0------------------|

E-----------------------------------------|
B-----------------------------------------|
G-----------------------------------------|
D|-5-7-7-7-------------------------------------------|
A-----------------------------------------|
E-----------------------------------------|




E-----------------------------------------|
B-----------------------------------------|
G-----------------------------------------|
D|--------2-2-2-2-2-2-2-2-2-2-2-2-2-2-2-2--7-7-7-7-7-7|
A-----------------------------------------|
E-----------------------------------------|
          

E-----------------------------------------|
B-----------------------------------------|
G-----------------------------------------|
D|-7-7-7-7-7-7-7-7-7-7-2-2-2-2-2-2-2--4-4-4-4-5-5-5-5-|
A-----------------------------------------|
E-----------------------------------------|

E-----------------------------------------|
B-----------------------------------------|
G-----------------------------------------|
D|-5-7-7-7-------------------------------------------|
A-----------------------------------------|
E-----------------------------------------|




E-----------------------------------------|
B-----------------------------------------|
G-----------------------------------------|
D|--9p^7----------------------------------------------|
A|-------9---7p^5-----5h^7~~~-------------------------|
E------7----------------------------------|


E-----------------------------------------|
B|-15b-r15p^12----------------------------------------|
G---14b-r14p^12---x14-12h^14p^12----------|
D--------------------------------14--12---|
A-----------------------------------------|
E-----------------------------------------|

E-----------------------------------------|
B-----------------------------------------|
G-----------------------------------------|
D|-12h^14---------------------------------------------|
A-----------------------------------------|
E-----------------------------------------|



Solo

E-----------------------------------------|
B|----------12----------------------------------------|
G|------12--12--14*b--14-12-------------12h^14p^12----|
D|--/14-12-------------------14p^12h^14------------14-|
A-----------------------------------------|
E-----------------------------------------|

E-----------------------------------------|
B------------15b-15b~-12h^15p^12----12----|
G|-12--12h^14p^12----12----------------------14-------|
D-----14----------------------------------|
A-----------------------------------------|
E-----------------------------------------|

E-----------------------------------------|
B-------------15--------------------------|
G|--12h^14p^12----12--14b----r14p^12------------------|
D--14--------------------14~~-------------|
A-----------------------------------------|
E-----------------------------------------|



I WAS MADE FOR LOVIN 

Тональность:

Это должно быть в ТОП-листе! - Топ-лист композиций



Назад
Рекомендуем посмотреть другие песни исполнителя «Kiss»:

  • Комменты Fb ()
  • Комменты ВК



Добавить в Избранное Браузера
Сохранить здесь Очистить


x

0


+
-

+
-

-

Авторизация





Зарегистрироваться

M

Дата и время

  • 18:23:07
     

Социальные ссылки


Наши приложения

  • Muzbank App Play Market
  • Muzbank Amazon App