MUZBANK


МУЗЫКАЛЬНО-ИНФОРМАЦИОННЫЙ БАНК





KKiss • Love Gun (аккорды и текст - chords & lyrics)


352

Print

Видео «Love Gun (Kiss)»

Видео клипы к песне подбираются автоматически сайтом youtube. Возможны некоторые несоответствия клипов песне.

↑ Спрятать рекламу ↑






 


From album "Love Gun"

tune down 1/2 step

intro 
---------------------------------------------------------
---------------------------------------------------------
-9-9-9-9------9-9-9-9------9-9-9-9-9-9-9-9-9-9-----------
-9-9-9-9------9-9-9-9------9-9-9-9-9-9-9-9-9-9-----------
-7-7-7-7------7-7-7-7------7-7-7-7-7-7-7-7-7-7-----------
---------------------------------------------------------

main riff & chorus
---------------------------------------------------------
---------------------------------------------------------
-9----12-14-12-7-5--- 12-7-9----12-14-12-7-5---- 12-7-9--
-9----12-14-12-7-5--- 12-7-9----12-14-12-7-5---- 12-7-9--
-7----10-12-10-5-3----10-5-7----10-12-10-5-3-----10-5-7--
---------------------------------------------------------

verse

----------------------------------------------------------
----------------------------------------------------
-- 12-7-9------ 12----5----7----9--------------------------
-- 12-7-9------ 12-5--5----7----9--------------------------
---10-5-7-------10-5--3----5----7--------------------------
-------------------3--------------------------------------



---7-------------------------------------------------------
---8-------------------------------------------------
---9------ 12-7-9---- 12---5----7----9---------------------
---9------ 12-7-9---- 12-5-5----7----9---------------------
---7-------10-5-7-----10-5-3----5----7---------------------
-------------------------3---------------------------------


----------------------------------------------------------
---------------------------------------------------------
--2-----7-----9------2------7------9---------------------------
--2-----7-----9------2------7------9---------------------------
--0-----5-----7------0------5------7--------------------------
-------------------------------------------------------


Lirics:


I really love you baby 
I love what you 

Тональность:

Это должно быть в ТОП-листе! - Топ-лист композиций



Назад
Рекомендуем посмотреть другие песни исполнителя «Kiss»:

  • Комменты Fb ()
  • Комменты ВК



Добавить в Избранное Браузера
Сохранить здесь Очистить


x

0


+
-

+
-

-

Авторизация





Зарегистрироваться

M

Дата и время

  • 19:42:49
     

Социальные ссылки


Наши приложения

  • Muzbank App Play Market
  • Muzbank Amazon App