MUZBANK


МУЗЫКАЛЬНО-ИНФОРМАЦИОННЫЙ БАНК





KKiss • Sure Know Something (аккорды и текст - chords & lyrics)


289

Print

Видео «Sure Know Something (Kiss)»

Видео клипы к песне подбираются автоматически сайтом youtube. Возможны некоторые несоответствия клипов песне.

↑ Спрятать рекламу ↑






 


intro:

x is a pause
   em                         am 
A--x-7-5---5-7-|-x--7-5----|-x------------
E--------7-----|--------3-5|---5-3-0-3-5--

  am             hm           am        
D---------------|-x-7-5-----|
A--x-----------|-x-5-7-5----|-------7-5-|
E----5-3-0-5-7-|---------7-5|

   em
A--x-7---------5------------------
E------3-5-3-7------------------

guitar:
em|em|am|am|hm|am|

em
H-8------8---|
G---7------7-|
D-----9------|

Verse:
em
I 

Тональность:

Это должно быть в ТОП-листе! - Топ-лист композиций



Назад
Рекомендуем посмотреть другие песни исполнителя «Kiss»:

  • Комменты Fb ()
  • Комменты ВК



Добавить в Избранное Браузера
Сохранить здесь Очистить


x

0


+
-

+
-

-

Авторизация





Зарегистрироваться

M

Дата и время

  • 05:59:40
     

Социальные ссылки


Наши приложения

  • Muzbank App Play Market
  • Muzbank Amazon App