MUZBANK


МУЗЫКАЛЬНО-ИНФОРМАЦИОННЫЙ БАНК





KKiss • Within (аккорды и текст - chords & lyrics)


432

Print

Видео «Within (Kiss)»

Видео клипы к песне подбираются автоматически сайтом youtube. Возможны некоторые несоответствия клипов песне.

↑ Спрятать рекламу ↑






Rhythm Fig. 1

F|----------------------------------------------------|
C|----------------------------------------------------|
G|--5----7----------------5----7----------------------|
D|---------0--0--0--0--0----------0--0--4---5---4-----|
< - - - - 3x - - - - >


F|----------------------------------------------------|
C|----------------------------------------------------|
G|-----5----------------------------------------------|
D|--0---------------0--0--0--0--0--0--0--0------------|



Rhythm Fig. 2

F|----------------------------------------------------|
C|----------------------------------------------------|
G|--5--------5-----4----------------------------------|
D|----------------------------------------------------|



Rhythm Fig. 3a

F|----------------------------------------------------|
C|----------------------------------------------------|
G|--5----7----------------5----7----------------------|
D|---------0--0--0--0--0----------0--0--4---5---4/----|
< - - - - 3x - - - - >



F|----------------------------------------------------|
C|----------------------------------------------------|
G|-----------------------5-----7----------------------|
D|--12⁄---0--0--0--0--0-----------0--0--0--0--0-------|
< - - - - - 2x - - - - - >



F|----------------------------------------------------|
C|----------------------------------------------------|
G|--5----7---------------------5----------------------|
D|---------0--0--4---5---4--0--------0--0--0--0--0--0-|



Rhythm Fig. 3b

F|----------------------------------------------------|
C|----------------------------------------------------|
G|--5----7----------------5----7----------------------|
D|---------0--0--0--0--0----------0--0--4---5---4/----|
< - - - - 3x - - - - >



F|----------------------------------------------------|
C|----------------------------------------------------|
G|-----------------------5-----7----------------------|
D|--12⁄---0--0--0--0--0-----------0--0--0--0--0-------|
< - - - - - 2x - - - - - >



F|----------------------------------------------------|
C|----------------------------------------------------|
G|--5----7---------------------5--5--5-------5--------|
D|---------0--0--4---5---4--0-----------7-------------|



Rhythm Fig. 4

F|----------------------------------------------------|
C|----------------------------------------------------|
G|--5----------------5----------------4---------------|
D|----------------------------------------------------|



Rhythm Fig. 5

F|----------------------------------------------------|
C|----------------------------------------------------|
G|--3-----3--5-----5--3-----3--2-----3---3/--5---5----|
D|----------------------------------------------------|



Rhythm Fig. 6

F|-------------------------------------------------------------------|
C|-------------------------------------------------------------------|
G|--------------------------------------------------5--5--5--5--5--5-|
D|--0----0----0--0--0----0----0--0--0----0----0--0-------------------|
< - - - - - - 3x - - - - - - ->


F|-------------------------------------------------------------------|
C|-------------------------------------------------------------------|
G|----------------------------------3----3----3--3--5----5----5--5---|
D|--0----0----0--0--0----0----0--0-----------------------------------|
< - - - - - - 3x - - - - - - ->

Rhythm Fig. 7

F|-------------------------------------------------------------------|
C|-------------------------------------------------------------------|
G|---------------------5----7----------------5----7------------------|
D|-12⁄---0--0--0--0--0--------0--0--0--0--0---------0--0--4---5---4/-|
< - - - - 2x - - - >


F|-------------------------------------------------------------------|
C|-------------------------------------------------------------------|
G|-----------------------5----7-----------------5----7---------------|
D|--12⁄---0--0--0--0--0----------0--0--0--0--0----------0--0---------|
< - - - - 2x - - - - >


F|-------------------------------------------------------------------|
C|-------------------------------------------------------------------|
G|----------------5--5--5-------5------------------------------------|
D|--4---5---4--0-----------7-----------------------------------------|



[Intro: guitar only]

[Rhy. Fig 1] (2x)
[Rhy. Fig 2]

[Rhy. Fig 3a]

[Rhy. Fig 1] (2x)
[Rhy. Fig 4]

[Rhy. Fig 3a]

[Rhy. Fig 5]

[Guitar only]
[Rhy. Fig 6] (2x)
[Rhy. Fig 8a and Rhy. Fig 8b]

[Guitar only]
[Rhy. Fig 7]

[Rhy. Fig 3b]
[Rhy. Fig 3b] (fade out)

Тональность:

Это должно быть в ТОП-листе! - Топ-лист композиций



Назад
Рекомендуем посмотреть другие песни исполнителя «Kiss»:

  • Комменты Fb ()
  • Комменты ВК



Добавить в Избранное Браузера
Сохранить здесь Очистить


x

0


+
-

+
-

-

Авторизация





Зарегистрироваться

M

Дата и время

  • 20:58:49
     

Социальные ссылки


Наши приложения

  • Muzbank App Play Market
  • Muzbank Amazon App