MUZBANK


МУЗЫКАЛЬНО-ИНФОРМАЦИОННЫЙ БАНК





KKorn • For You (аккорды и текст - chords & lyrics)


384

Print

Видео «For You (Korn)»

Видео клипы к песне подбираются автоматически сайтом youtube. Возможны некоторые несоответствия клипов песне.

↑ Спрятать рекламу ↑





 


4 U by KoRn
Guitarist: Munky & Head
Album: Issues
Dif.: 3
Tabbed by Twiggy5

NOTE: Tune guitar down 1 whole step A D G C F A D
NOTE: Guitar 2 is synth. guitar but works perfect on normal guitar

Intro (Gtr. 1)
A|----|-------------0------|
F|----|-------------5------|
C|----|--2----------5------|
G|-7--|--2----------3------|
D|-7--|--0-----------------|
A|-5--|--------------------|

Intro (Gtr. 2)
F|----|-1---------|----------|--0--------------|

Verse (Gtr. 1)
A|-------------------|------------------|-0---------------|-----------------|
F|-------------------|------------------|-5---------------|-----------------|
C|--2----------------|------------------|-5---------------|-----------------|
G|--2----------------|------------------|-3---------------|-----------------|
D|--0----------------|------------------|-----------------|-----------------|
       This shit right here.....                 I can see you........

Verse (Gtr. 2)
A|------------0----|-%-|------------0----|-%-|
F|----1------------|-%-|----0------------|-%-|

Fill (Gtr. 1)
F|---------------|-0------------|---------------|------------|-----------|
C|---------------|-9------------|---------------|------------|-2---------|
G|-7-------------|-9------------|---------------|------------|-2---------|
D|-7-------------|-7------------|---------------|------------|-0---------|
A|-0-------------|--------------|---------------|------------|-----------|
        I couldn 

Тональность:

Это должно быть в ТОП-листе! - Топ-лист композиций



Назад
Рекомендуем посмотреть другие песни исполнителя «Korn»:

  • Комменты Fb ()
  • Комменты ВК



Добавить в Избранное Браузера
Сохранить здесь Очистить


x

0


+
-

+
-

-

Авторизация





Зарегистрироваться

M

Дата и время

  • 21:31:19
     

Социальные ссылки


Наши приложения

  • Muzbank App Play Market
  • Muzbank Amazon App