MUZBANK


МУЗЫКАЛЬНО-ИНФОРМАЦИОННЫЙ БАНК





KKorn • Lost (аккорды и текст - chords & lyrics)


348

Print

Видео «Lost (Korn)»

Видео клипы к песне подбираются автоматически сайтом youtube. Возможны некоторые несоответствия клипов песне.

↑ Спрятать рекламу ↑





 


Lost by KoRn
Guitarist: Munky & Head
Album: Life Is Peachy
Dif.: 8
Tabbed by Twiggy5

NOTE: Tune down one whole step A D G C F A D

Intro 1 (Both Guitars) (clean) (fade in and out with volume knob)
C|-----0---------------| 4x
G|-----4---------------|
             >>

Intro 2/Chorus (Both Guitars) (w/ dist.)
G|-------------------------------4^--|
D|-54-4-43-3-54-4-43-3-------|
A|-32-2-21-1-32-2-2-1-1-------|
			                                       ^ 1/4 step

Verse (Both Guitars) (Fade in and out with volume knob)
C|----------------0-------|-(0)-----------------------|
G|----------------4-------|-(4)-----------------------|
                           >>>>>>>>>>>>>>

Verse (cont.)
C|----------------0--------|--(0)------------------0--|
G|----------------4--------|--(4)------------------4--|
                         >>             < >

Bridge (Gtr. 1)
G|--4-4----4----4-4-4---4---4-4-4--|-%-|-%-|-%-|
D|--3-3----3----3-3-3---3---3-3-3--|-%-|-%-|-%-|

Bridge (Gtr. 2)
D|---------------------|-3-------------3-------------3----|-%-|-%-|
A|---------------------|---2----2---2----2----2----2---2--|-%-|-%-|

Bridge 2 (Gtr. 2) ( 

Тональность:

Это должно быть в ТОП-листе! - Топ-лист композиций



Назад
Рекомендуем посмотреть другие песни исполнителя «Korn»:

  • Комменты Fb ()
  • Комменты ВК



Добавить в Избранное Браузера
Сохранить здесь Очистить


x

0


+
-

+
-

-

Авторизация





Зарегистрироваться

M

Дата и время

  • 10:48:20
     

Социальные ссылки


Наши приложения

  • Muzbank App Play Market
  • Muzbank Amazon App