MUZBANK


МУЗЫКАЛЬНО-ИНФОРМАЦИОННЫЙ БАНК





KKorn • Swallow (аккорды и текст - chords & lyrics)


343

Print

Видео «Swallow (Korn)»

Видео клипы к песне подбираются автоматически сайтом youtube. Возможны некоторые несоответствия клипов песне.

↑ Спрятать рекламу ↑





 


Swallow by KoRn
Guitarist: Munky & Head
Album: Life Is Peachy
Dif.: 7
Tabbed by Twiggy5

NOTE: Tune 1/2 step down Bb Eb Ab Db Gb Bb Eb

Intro 1 (Gtr. 1) (Clean)
Ab|-3-------3-----------------------|-3-------3-----------------|
Eb|----------------------------------|---------------------------|
Bb|---1-0-1---1-0-1--1-2-1-0-1-1-1--|---1-0-1---1-0-1--1-2-1-0--|

Intro 2 (Both Guitars) (w/ dist.)
Ab|-3-------3-----------------------|-3--------3---------------------
Eb|----------------------------------|--------------------------------
Bb|---1-0-1---1-0-1--1-2-1-0-1-1-1--|---1-0-1---1-0-1--1-2-1-0-1-1-1-

Intro 2 (cont.)
Ab|-3-------3-----------------------|-3-------3-----------------|
Eb|----------------------------------|---------------------------|
Bb|---1-0-1---1-0-1--1-2-1-0-1-1-1--|---1-0-1---1-0-1--1-2-1-0-|
	                             1st time

2nd time
Ab|-3-------3-----------------------|
Eb|---------------------------------|
Bb|---1-0-1---1-0-1--1-2-1-0-1-1-1--|

Fill 1 (Both Guitars) 
Ab|------------------14--|-----(14)--------------|
Fb|------------------12--|-----(12)--------------|
Cb|------------------11--|-----(11)--------------|
Gb|------------------10--|-----(10)--------------| 2x

Verse (Gtr. 1)
Ab|-/14-------------14---|--14-----------|
Fb|-----------------12---|--12-----------|
Cb|-----------11----11---|--11-----------| 4x
Db|-------9--------------|---------------|
                                  trem pik.

Verse (Gtr. 2)
Ab|------------------14--|-----(14)--------------|
Fb|------------------12--|-----(12)--------------|
Cb|------------------11--|-----(11)--------------|
Gb|------------------10--|-----(10)--------------| 4x

Chorus (Both Guitars) ( 

Тональность:

Это должно быть в ТОП-листе! - Топ-лист композиций



Назад
Рекомендуем посмотреть другие песни исполнителя «Korn»:

  • Комменты Fb ()
  • Комменты ВК



Добавить в Избранное Браузера
Сохранить здесь Очистить


x

0


+
-

+
-

-

Авторизация





Зарегистрироваться

M

Дата и время

  • 04:54:52
     

Социальные ссылки


Наши приложения

  • Muzbank App Play Market
  • Muzbank Amazon App