MUZBANK


МУЗЫКАЛЬНО-ИНФОРМАЦИОННЫЙ БАНК





ККороль и Шут • Невидимка (аккорды и текст - chords & lyrics)


1293

Print

Видео «Невидимка (Король и Шут)»

Видео клипы к песне подбираются автоматически сайтом youtube. Возможны некоторые несоответствия клипов песне.

↑ Спрятать рекламу ↑





 


1-----------------------------------------------------------------------------------------------------
2-----------7----------8-------7---------------7---------8-------7---------------------------------
3-----------7-----7----7------7----7----------7----7----7------7----9----------------------------
4-----------------9------------------9---------------9-----------------7----------------------------     2 раза
5-----------------------------------------------------------------------------------------------------
6-----------------------------------------------------------------------------------------------------
(вначале поиграйте его(начало) пару раз и разберитесь с темпом)   

после вступления 1 гитара продолжает играть так,а вторая играет 8-ми нотами:
1-------------------------------------------------------------------------------------------------------
2-------------------------------------------------------------------------------------------------------
3-------------------------------------------------------------------------------------------------------
4-6-6-6-6-6-6-6-6-6-6-6-6-6-4-4-----------------------------------------------------------------     2 раза
5-4-4-4-4-4-4-4-4-4-4-4-4-4-2-2-----------------------------------------------------------------
6-------------------------------------------------------------------------------------------------------


F#m
Выбора мне судья
A
Не оставил.
E_______________H
Над собой эксперимент
F#m
В ту роковую я
A
Ночь поставил.
E______________H C#
И исчез в один момент.

F# H F#
Снова невидимка где-то здесь -
H
Он смотрит в Ваши лица.
F# H F#
В лютом гневе растворился весь
H
И от него не скрыться,
C# H F# G# A H D C# H C# A F#
Гаснет свет, и вам покоя нет.

Чёрную мантию
Снова вижу,
Закипает всё внутри.
Как её не люблю,
И ненавижу
Облик главного судьи.

Снова невидимка где-то здесь -
Он смотрит в Ваши лица.
В лютом гневе растворился весь,
И от него не скрыться,
Гаснет свет, и вам покоя нет.

Их обвинения - всё это липа!
Алчных, грязных умишек игра.
Но доберусь я до каждого типа,
Праведной мести настала пора!

Нет законов больше для меня
Отныне и навечно.
Что теперь вы можете, судья?
Да ничего, конечно.

Нет законов больше для меня!
Нет законов больше для меня!

Гаснет свет....
 

Тональность:

Это должно быть в ТОП-листе! - Топ-лист композиций



Назад
Рекомендуем посмотреть другие песни исполнителя «Король и Шут»:

  • Комменты Fb ()
  • Комменты ВК



Добавить в Избранное Браузера
Сохранить здесь Очистить


x

0


+
-

+
-

-

Авторизация





Зарегистрироваться

M

Дата и время

  • 15:00:48
     

Социальные ссылки


Наши приложения

  • Muzbank App Play Market
  • Muzbank Amazon App